  0
SECTION
  2
HEADER
  9
$ACADVER
  1
AC1014
  9
$ACADMAINTVER
 70
     9
  9
$DWGCODEPAGE
  3
ANSI_932
  9
$INSBASE
 10
0.0
 20
0.0
 30
0.0
  9
$EXTMIN
 10
-275.7351393204575
 20
-149.000000106054
 30
0.0
  9
$EXTMAX
 10
275.7351393204575
 20
139.000000106054
 30
0.0
  9
$LIMMIN
 10
-148.5
 20
-105.0
  9
$LIMMAX
 10
148.5
 20
105.0
  9
$ORTHOMODE
 70
     0
  9
$REGENMODE
 70
     1
  9
$FILLMODE
 70
     1
  9
$QTEXTMODE
 70
     0
  9
$MIRRTEXT
 70
     1
  9
$DRAGMODE
 70
     2
  9
$LTSCALE
 40
1.0
  9
$OSMODE
 70
    37
  9
$ATTMODE
 70
     1
  9
$TEXTSIZE
 40
0.2
  9
$TRACEWID
 40
0.05
  9
$TEXTSTYLE
  7
STANDARD
  9
$CLAYER
  8
0
  9
$CELTYPE
  6
BYLAYER
  9
$CECOLOR
 62
   256
  9
$CELTSCALE
 40
1.0
  9
$DELOBJ
 70
     1
  9
$DISPSILH
 70
     0
  9
$DIMSCALE
 40
1.0
  9
$DIMASZ
 40
2.5
  9
$DIMEXO
 40
0.0625
  9
$DIMDLI
 40
0.38
  9
$DIMRND
 40
0.0
  9
$DIMDLE
 40
0.0
  9
$DIMEXE
 40
0.18
  9
$DIMTP
 40
0.0
  9
$DIMTM
 40
0.0
  9
$DIMTXT
 40
0.18
  9
$DIMCEN
 40
0.09
  9
$DIMTSZ
 40
0.0
  9
$DIMTOL
 70
     0
  9
$DIMLIM
 70
     0
  9
$DIMTIH
 70
     1
  9
$DIMTOH
 70
     1
  9
$DIMSE1
 70
     0
  9
$DIMSE2
 70
     0
  9
$DIMTAD
 70
     3
  9
$DIMZIN
 70
     0
  9
$DIMBLK
  1

  9
$DIMASO
 70
     1
  9
$DIMSHO
 70
     1
  9
$DIMPOST
  1

  9
$DIMAPOST
  1

  9
$DIMALT
 70
     0
  9
$DIMALTD
 70
     2
  9
$DIMALTF
 40
25.4
  9
$DIMLFAC
 40
1.0
  9
$DIMTOFL
 70
     0
  9
$DIMTVP
 40
0.0
  9
$DIMTIX
 70
     0
  9
$DIMSOXD
 70
     0
  9
$DIMSAH
 70
     0
  9
$DIMBLK1
  1

  9
$DIMBLK2
  1

  9
$DIMSTYLE
  2
STANDARD
  9
$DIMCLRD
 70
     0
  9
$DIMCLRE
 70
     0
  9
$DIMCLRT
 70
     0
  9
$DIMTFAC
 40
1.0
  9
$DIMGAP
 40
0.09
  9
$DIMJUST
 70
     0
  9
$DIMSD1
 70
     0
  9
$DIMSD2
 70
     0
  9
$DIMTOLJ
 70
     1
  9
$DIMTZIN
 70
     0
  9
$DIMALTZ
 70
     0
  9
$DIMALTTZ
 70
     0
  9
$DIMFIT
 70
     3
  9
$DIMUPT
 70
     0
  9
$DIMUNIT
 70
     2
  9
$DIMDEC
 70
     4
  9
$DIMTDEC
 70
     4
  9
$DIMALTU
 70
     2
  9
$DIMALTTD
 70
     2
  9
$DIMTXSTY
  7
STANDARD
  9
$DIMAUNIT
 70
     0
  9
$LUNITS
 70
     2
  9
$LUPREC
 70
     4
  9
$SKETCHINC
 40
0.1
  9
$FILLETRAD
 40
0.5
  9
$AUNITS
 70
     0
  9
$AUPREC
 70
     0
  9
$MENU
  1
.
  9
$ELEVATION
 40
0.0
  9
$PELEVATION
 40
0.0
  9
$THICKNESS
 40
0.0
  9
$LIMCHECK
 70
     0
  9
$CHAMFERA
 40
0.5
  9
$CHAMFERB
 40
0.5
  9
$CHAMFERC
 40
1.0
  9
$CHAMFERD
 40
0.0
  9
$SKPOLY
 70
     0
  9
$TDCREATE
 40
2456434.792082361
  9
$TDUPDATE
 40
2456434.792082373
  9
$TDINDWG
 40
0.0000000116
  9
$TDUSRTIMER
 40
0.0000000116
  9
$USRTIMER
 70
     1
  9
$ANGBASE
 50
0.0
  9
$ANGDIR
 70
     0
  9
$PDMODE
 70
     0
  9
$PDSIZE
 40
1.0
  9
$PLINEWID
 40
0.0
  9
$COORDS
 70
     1
  9
$SPLFRAME
 70
     0
  9
$SPLINETYPE
 70
     6
  9
$SPLINESEGS
 70
     8
  9
$ATTDIA
 70
     0
  9
$ATTREQ
 70
     1
  9
$HANDLING
 70
     1
  9
$HANDSEED
  5
1C4
  9
$SURFTAB1
 70
     6
  9
$SURFTAB2
 70
     6
  9
$SURFTYPE
 70
     6
  9
$SURFU
 70
     6
  9
$SURFV
 70
     6
  9
$UCSNAME
  2

  9
$UCSORG
 10
0.0
 20
0.0
 30
0.0
  9
$UCSXDIR
 10
1.0
 20
0.0
 30
0.0
  9
$UCSYDIR
 10
0.0
 20
1.0
 30
0.0
  9
$PUCSNAME
  2

  9
$PUCSORG
 10
0.0
 20
0.0
 30
0.0
  9
$PUCSXDIR
 10
1.0
 20
0.0
 30
0.0
  9
$PUCSYDIR
 10
0.0
 20
1.0
 30
0.0
  9
$USERI1
 70
     0
  9
$USERI2
 70
     0
  9
$USERI3
 70
     0
  9
$USERI4
 70
     0
  9
$USERI5
 70
     0
  9
$USERR1
 40
0.0
  9
$USERR2
 40
0.0
  9
$USERR3
 40
0.0
  9
$USERR4
 40
0.0
  9
$USERR5
 40
0.0
  9
$WORLDVIEW
 70
     1
  9
$SHADEDGE
 70
     3
  9
$SHADEDIF
 70
    70
  9
$TILEMODE
 70
     1
  9
$MAXACTVP
 70
    64
  9
$PINSBASE
 10
0.0
 20
0.0
 30
0.0
  9
$PLIMCHECK
 70
     0
  9
$PEXTMIN
 10
1.000000000000000E+20
 20
1.000000000000000E+20
 30
1.000000000000000E+20
  9
$PEXTMAX
 10
-1.000000000000000E+20
 20
-1.000000000000000E+20
 30
-1.000000000000000E+20
  9
$PLIMMIN
 10
0.0
 20
0.0
  9
$PLIMMAX
 10
12.0
 20
9.0
  9
$UNITMODE
 70
     0
  9
$VISRETAIN
 70
     0
  9
$PLINEGEN
 70
     1
  9
$PSLTSCALE
 70
     0
  9
$TREEDEPTH
 70
  3020
  9
$PICKSTYLE
 70
     1
  9
$CMLSTYLE
  2
STANDARD
  9
$CMLJUST
 70
     0
  9
$CMLSCALE
 40
1.0
  9
$PROXYGRAPHICS
 70
     0
  9
$MEASUREMENT
 70
     1
  0
ENDSEC
  0
SECTION
  2
CLASSES
  0
CLASS
  1
ACDBDICTIONARYWDFLT
  2
AcDbDictionaryWithDefault
  3
ObjectDBX Classes
 90
        0
280
     0
281
     0
  0
CLASS
  1
XRECORD
  2
AcDbXrecord
  3
AutoCAD 2000
 90
        0
280
     0
281
     0
  0
CLASS
  1
LWPOLYLINE
  2
AcDbPolyline
  3
AutoCAD 2000
 90
        0
280
     0
281
     1
  0
CLASS
  1
HATCH
  2
AcDbHatch
  3
AutoCAD 2000
 90
        0
280
     0
281
     1
  0
CLASS
  1
ACDBPLACEHOLDER
  2
AcDbPlaceHolder
  3
ObjectDBX Classes
 90
        0
280
     0
281
     0
  0
CLASS
  1
LAYOUT
  2
AcDbLayout
  3
ObjectDBX Classes
 90
        0
280
     0
281
     0
  0
ENDSEC
  0
SECTION
  2
TABLES
  0
TABLE
  2
VPORT
  5
8
330
0
100
AcDbSymbolTable
 70
     1
  0
VPORT
  5
29
330
8
100
AcDbSymbolTableRecord
100
AcDbViewportTableRecord
  2
*ACTIVE
 70
     0
 10
0.0
 20
0.0
 11
1.0
 21
1.0
 12
0.0
 22
0.0
 13
0.0
 23
0.0
 14
0.5
 24
0.5
 15
0.5
 25
0.5
 16
0.0
 26
0.0
 36
1.0
 17
-0.0000000000000036
 27
-1.0
 37
0.0
 40
106.0800000721167
 41
1.767532943160279
 42
50.0
 43
0.0
 44
0.0
 50
0.0
 51
0.0
 71
     0
 72
  1000
 73
     1
 74
     1
 75
     0
 76
     0
 77
     0
 78
     0
  0
ENDTAB
  0
TABLE
  2
LTYPE
  5
5
330
0
100
AcDbSymbolTable
 70
    28
  0
LTYPE
  5
14
330
5
100
AcDbSymbolTableRecord
100
AcDbLinetypeTableRecord
  2
BYBLOCK
 70
     0
  3

 72
    65
 73
     0
 40
0.0
  0
LTYPE
  5
15
330
5
100
AcDbSymbolTableRecord
100
AcDbLinetypeTableRecord
  2
BYLAYER
 70
     0
  3

 72
    65
 73
     0
 40
0.0
  0
LTYPE
  5
16
330
5
100
AcDbSymbolTableRecord
100
AcDbLinetypeTableRecord
  2
CONTINUOUS
 70
     0
  3
Solid line
 72
    65
 73
     0
 40
0.0
  0
LTYPE
  5
2B
330
5
100
AcDbSymbolTableRecord
100
AcDbLinetypeTableRecord
  2
HIDDENX2
 70
     0
  3
CADPAC LINETYPE
 72
    65
 73
     2
 40
4.57516339869278
 49
3.431372549019585
 74
     0
 49
-1.143790849673195
 74
     0
  0
LTYPE
  5
2C
330
5
100
AcDbSymbolTableRecord
100
AcDbLinetypeTableRecord
  2
HIDDEN
 70
     0
  3
CADPAC LINETYPE
 72
    65
 73
     2
 40
3.431372549019585
 49
2.28758169934639
 74
     0
 49
-1.143790849673195
 74
     0
  0
LTYPE
  5
2D
330
5
100
AcDbSymbolTableRecord
100
AcDbLinetypeTableRecord
  2
HIDDEN2
 70
     0
  3
CADPAC LINETYPE
 72
    65
 73
     2
 40
2.859477124182988
 49
1.715686274509793
 74
     0
 49
-1.143790849673195
 74
     0
  0
LTYPE
  5
2E
330
5
100
AcDbSymbolTableRecord
100
AcDbLinetypeTableRecord
  2
DASHED
 70
     0
  3
CADPAC LINETYPE
 72
    65
 73
     2
 40
3.202614379084935
 49
2.28758169934639
 74
     0
 49
-0.9150326797385446
 74
     0
  0
LTYPE
  5
2F
330
5
100
AcDbSymbolTableRecord
100
AcDbLinetypeTableRecord
  2
DASHED2
 70
     0
  3
CADPAC LINETYPE
 72
    65
 73
     2
 40
2.058823529411711
 49
1.372549019607817
 74
     0
 49
-0.6862745098038943
 74
     0
  0
LTYPE
  5
30
330
5
100
AcDbSymbolTableRecord
100
AcDbLinetypeTableRecord
  2
DASHEDX2
 70
     0
  3
CADPAC LINETYPE
 72
    65
 73
     2
 40
5.490196078431325
 49
4.57516339869278
 74
     0
 49
-0.9150326797385446
 74
     0
  0
LTYPE
  5
31
330
5
100
AcDbSymbolTableRecord
100
AcDbLinetypeTableRecord
  2
DOTX2
 70
     0
  3
CADPAC LINETYPE
 72
    65
 73
     2
 40
2.001633986928084
 49
0.0
 74
     0
 49
-2.001633986928084
 74
     0
  0
LTYPE
  5
32
330
5
100
AcDbSymbolTableRecord
100
AcDbLinetypeTableRecord
  2
DOT
 70
     0
  3
CADPAC LINETYPE
 72
    65
 73
     2
 40
1.601307189542467
 49
0.0
 74
     0
 49
-1.601307189542467
 74
     0
  0
LTYPE
  5
33
330
5
100
AcDbSymbolTableRecord
100
AcDbLinetypeTableRecord
  2
DOT2
 70
     0
  3
CADPAC LINETYPE
 72
    65
 73
     2
 40
1.200980392156851
 49
0.0
 74
     0
 49
-1.200980392156851
 74
     0
  0
LTYPE
  5
34
330
5
100
AcDbSymbolTableRecord
100
AcDbLinetypeTableRecord
  2
CENTERX2
 70
     0
  3
CADPAC LINETYPE
 72
    65
 73
     4
 40
6.86274509803917
 49
2.859477124182988
 74
     0
 49
-1.429738562091494
 74
     0
 49
1.143790849673195
 74
     0
 49
-1.429738562091494
 74
     0
  0
LTYPE
  5
35
330
5
100
AcDbSymbolTableRecord
100
AcDbLinetypeTableRecord
  2
CENTER
 70
     0
  3
CADPAC LINETYPE
 72
    65
 73
     4
 40
5.261437908496697
 49
2.28758169934639
 74
     0
 49
-1.143790849673195
 74
     0
 49
0.686274509803917
 74
     0
 49
-1.143790849673195
 74
     0
  0
LTYPE
  5
36
330
5
100
AcDbSymbolTableRecord
100
AcDbLinetypeTableRecord
  2
CENTER2
 70
     0
  3
CADPAC LINETYPE
 72
    65
 73
     4
 40
3.660130718954224
 49
1.715686274509793
 74
     0
 49
-0.8578431372548963
 74
     0
 49
0.228758169934639
 74
     0
 49
-0.8578431372548963
 74
     0
  0
LTYPE
  5
37
330
5
100
AcDbSymbolTableRecord
100
AcDbLinetypeTableRecord
  2
DASHDOTX2
 70
     0
  3
CADPAC LINETYPE
 72
    65
 73
     4
 40
10.98039215686262
 49
5.490196078431353
 74
     0
 49
-1.830065359477089
 74
     0
 49
1.830065359477089
 74
     0
 49
-1.830065359477089
 74
     0
  0
LTYPE
  5
38
330
5
100
AcDbSymbolTableRecord
100
AcDbLinetypeTableRecord
  2
DASHDOT
 70
     0
  3
CADPAC LINETYPE
 72
    65
 73
     4
 40
5.490196078431296
 49
2.745098039215662
 74
     0
 49
-0.9150326797385446
 74
     0
 49
0.9150326797385446
 74
     0
 49
-0.9150326797385446
 74
     0
  0
LTYPE
  5
39
330
5
100
AcDbSymbolTableRecord
100
AcDbLinetypeTableRecord
  2
DASHDOT2
 70
     0
  3
CADPAC LINETYPE
 72
    65
 73
     4
 40
3.522875816993418
 49
2.058823529411747
 74
     0
 49
-0.6862745098039085
 74
     0
 49
0.0915032679738545
 74
     0
 49
-0.6862745098039085
 74
     0
  0
LTYPE
  5
3A
330
5
100
AcDbSymbolTableRecord
100
AcDbLinetypeTableRecord
  2
DIVIDEX2
 70
     0
  3
CADPAC LINETYPE
 72
    65
 73
     6
 40
14.6405228758168
 49
5.490196078431353
 74
     0
 49
-1.830065359477089
 74
     0
 49
1.830065359477089
 74
     0
 49
-1.830065359477089
 74
     0
 49
1.830065359477089
 74
     0
 49
-1.830065359477089
 74
     0
  0
LTYPE
  5
3B
330
5
100
AcDbSymbolTableRecord
100
AcDbLinetypeTableRecord
  2
DIVIDE
 70
     0
  3
CADPAC LINETYPE
 72
    65
 73
     6
 40
7.320261437908386
 49
2.745098039215662
 74
     0
 49
-0.9150326797385446
 74
     0
 49
0.9150326797385446
 74
     0
 49
-0.9150326797385446
 74
     0
 49
0.9150326797385446
 74
     0
 49
-0.9150326797385446
 74
     0
  0
LTYPE
  5
3C
330
5
100
AcDbSymbolTableRecord
100
AcDbLinetypeTableRecord
  2
DIVIDE2
 70
     0
  3
CADPAC LINETYPE
 72
    65
 73
     6
 40
5.490196078431289
 49
2.058823529411747
 74
     0
 49
-0.6862745098039085
 74
     0
 49
0.6862745098039085
 74
     0
 49
-0.6862745098039085
 74
     0
 49
0.6862745098039085
 74
     0
 49
-0.6862745098039085
 74
     0
  0
LTYPE
  5
3D
330
5
100
AcDbSymbolTableRecord
100
AcDbLinetypeTableRecord
  2
BORDERX2
 70
     0
  3
CADPAC LINETYPE
 72
    65
 73
     6
 40
10.00816993464046
 49
2.859477124182988
 74
     0
 49
-1.429738562091494
 74
     0
 49
2.859477124182988
 74
     0
 49
-1.429738562091494
 74
     0
 49
0.0
 74
     0
 49
-1.429738562091494
 74
     0
  0
LTYPE
  5
3E
330
5
100
AcDbSymbolTableRecord
100
AcDbLinetypeTableRecord
  2
BORDER
 70
     0
  3
CADPAC LINETYPE
 72
    65
 73
     6
 40
8.006535947712365
 49
2.28758169934639
 74
     0
 49
-1.143790849673195
 74
     0
 49
2.28758169934639
 74
     0
 49
-1.143790849673195
 74
     0
 49
0.0
 74
     0
 49
-1.143790849673195
 74
     0
  0
LTYPE
  5
3F
330
5
100
AcDbSymbolTableRecord
100
AcDbLinetypeTableRecord
  2
BORDER2
 70
     0
  3
CADPAC LINETYPE
 72
    65
 73
     6
 40
5.947712418300569
 49
1.830065359477089
 74
     0
 49
-1.143790849673195
 74
     0
 49
0.6862745098038943
 74
     0
 49
-1.143790849673195
 74
     0
 49
0.0
 74
     0
 49
-1.143790849673195
 74
     0
  0
LTYPE
  5
40
330
5
100
AcDbSymbolTableRecord
100
AcDbLinetypeTableRecord
  2
PHANTOMX2
 70
     0
  3
CADPAC LINETYPE
 72
    65
 73
     6
 40
8.578431372548963
 49
2.859477124182988
 74
     0
 49
-1.143790849673195
 74
     0
 49
1.143790849673195
 74
     0
 49
-1.143790849673195
 74
     0
 49
1.143790849673195
 74
     0
 49
-1.143790849673195
 74
     0
  0
LTYPE
  5
41
330
5
100
AcDbSymbolTableRecord
100
AcDbLinetypeTableRecord
  2
PHANTOM
 70
     0
  3
CADPAC LINETYPE
 72
    65
 73
     6
 40
7.09150326797381
 49
2.28758169934639
 74
     0
 49
-1.143790849673195
 74
     0
 49
0.686274509803917
 74
     0
 49
-1.143790849673195
 74
     0
 49
0.686274509803917
 74
     0
 49
-1.143790849673195
 74
     0
  0
LTYPE
  5
42
330
5
100
AcDbSymbolTableRecord
100
AcDbLinetypeTableRecord
  2
PHANTOM2
 70
     0
  3
CADPAC LINETYPE
 72
    65
 73
     6
 40
6.062091503267933
 49
1.715686274509793
 74
     0
 49
-1.143790849673195
 74
     0
 49
0.457516339869278
 74
     0
 49
-1.143790849673195
 74
     0
 49
0.457516339869278
 74
     0
 49
-1.143790849673195
 74
     0
  0
LTYPE
  5
43
330
5
100
AcDbSymbolTableRecord
100
AcDbLinetypeTableRecord
  2
ACAD_ISO06W100
 70
     0
  3
CADPAC LINETYPE
 72
    65
 73
     8
 40
12.12418300653582
 49
5.490196078431353
 74
     0
 49
-1.143790849673195
 74
     0
 49
0.6862745098038943
 74
     0
 49
-1.143790849673195
 74
     0
 49
0.6862745098038943
 74
     0
 49
-1.143790849673195
 74
     0
 49
0.6862745098038943
 74
     0
 49
-1.143790849673195
 74
     0
  0
LTYPE
  5
44
330
5
100
AcDbSymbolTableRecord
100
AcDbLinetypeTableRecord
  2
ACAD_ISO13W100
 70
     0
  3
CADPAC LINETYPE
 72
    65
 73
     8
 40
9.15032679738556
 49
2.28758169934639
 74
     0
 49
-1.143790849673195
 74
     0
 49
2.28758169934639
 74
     0
 49
-1.143790849673195
 74
     0
 49
0.0
 74
     0
 49
-1.143790849673195
 74
     0
 49
0.0
 74
     0
 49
-1.143790849673195
 74
     0
  0
LTYPE
  5
45
330
5
100
AcDbSymbolTableRecord
100
AcDbLinetypeTableRecord
  2
ACAD_ISO14W100
 70
     0
  3
CADPAC LINETYPE
 72
    65
 73
     8
 40
6.86274509803917
 49
2.28758169934639
 74
     0
 49
-1.143790849673195
 74
     0
 49
0.0
 74
     0
 49
-1.143790849673195
 74
     0
 49
0.0
 74
     0
 49
-1.143790849673195
 74
     0
 49
0.0
 74
     0
 49
-1.143790849673195
 74
     0
  0
ENDTAB
  0
TABLE
  2
LAYER
  5
2
330
0
100
AcDbSymbolTable
 70
     4
  0
LAYER
  5
10
330
2
100
AcDbSymbolTableRecord
100
AcDbLayerTableRecord
  2
0
 70
     0
 62
     7
  6
CONTINUOUS
  0
LAYER
  5
46
330
2
100
AcDbSymbolTableRecord
100
AcDbLayerTableRecord
  2
LAYER0001
 70
     0
 62
     7
  6
CONTINUOUS
  0
LAYER
  5
47
330
2
100
AcDbSymbolTableRecord
100
AcDbLayerTableRecord
  2
LAYER0015
 70
     0
 62
     7
  6
CONTINUOUS
  0
LAYER
  5
48
330
2
100
AcDbSymbolTableRecord
100
AcDbLayerTableRecord
  2
LAYER0112
 70
     0
 62
     7
  6
CONTINUOUS
  0
ENDTAB
  0
TABLE
  2
STYLE
  5
3
330
0
100
AcDbSymbolTable
 70
     2
  0
STYLE
  5
11
330
3
100
AcDbSymbolTableRecord
100
AcDbTextStyleTableRecord
  2
STANDARD
 70
     0
 40
0.0
 41
1.0
 50
0.0
 71
     0
 42
0.2
  3
txt
  4

  0
STYLE
  5
85
330
3
100
AcDbSymbolTableRecord
100
AcDbTextStyleTableRecord
  2
FDASTYLE0
 70
     0
 40
4.0
 41
0.7777777777777778
 50
0.0
 71
     0
 42
0.2
  3
txt.shx
  4
bigfont
  0
ENDTAB
  0
TABLE
  2
VIEW
  5
6
330
0
100
AcDbSymbolTable
 70
     0
  0
ENDTAB
  0
TABLE
  2
UCS
  5
7
330
0
100
AcDbSymbolTable
 70
     0
  0
ENDTAB
  0
TABLE
  2
APPID
  5
9
330
0
100
AcDbSymbolTable
 70
     2
  0
APPID
  5
12
330
9
100
AcDbSymbolTableRecord
100
AcDbRegAppTableRecord
  2
ACAD
 70
     0
  0
APPID
  5
2A
330
9
100
AcDbSymbolTableRecord
100
AcDbRegAppTableRecord
  2
DAFUSIONOUT
 70
     0
  0
ENDTAB
  0
TABLE
  2
DIMSTYLE
  5
A
330
0
100
AcDbSymbolTable
 70
     1
  0
DIMSTYLE
105
27
330
A
100
AcDbSymbolTableRecord
100
AcDbDimStyleTableRecord
  2
STANDARD
 70
     0
  3

  4

  5

  6

  7

 40
1.0
 41
0.18
 42
0.0625
 43
0.38
 44
0.18
 45
0.0
 46
0.0
 47
0.0
 48
0.0
140
0.18
141
0.09
142
0.0
143
25.4
144
1.0
145
0.0
146
1.0
147
0.09
 71
     0
 72
     0
 73
     1
 74
     1
 75
     0
 76
     0
 77
     0
 78
     0
170
     0
171
     2
172
     0
173
     0
174
     0
175
     0
176
     0
177
     0
178
     0
270
     2
271
     4
272
     4
273
     2
274
     2
340
11
275
     0
280
     0
281
     0
282
     0
283
     1
284
     0
285
     0
286
     0
287
     3
288
     0
  0
ENDTAB
  0
TABLE
  2
BLOCK_RECORD
  5
1
330
0
100
AcDbSymbolTable
 70
    20
  0
BLOCK_RECORD
  5
1F
330
1
100
AcDbSymbolTableRecord
100
AcDbBlockTableRecord
  2
*MODEL_SPACE
  0
BLOCK_RECORD
  5
1B
330
1
100
AcDbSymbolTableRecord
100
AcDbBlockTableRecord
  2
*PAPER_SPACE
  0
BLOCK_RECORD
  5
4A
330
1
100
AcDbSymbolTableRecord
100
AcDbBlockTableRecord
  2
DC_GROUP_1
  0
BLOCK_RECORD
  5
4D
330
1
100
AcDbSymbolTableRecord
100
AcDbBlockTableRecord
  2
DA_IMAGEDIMGROUP_1
  0
BLOCK_RECORD
  5
50
330
1
100
AcDbSymbolTableRecord
100
AcDbBlockTableRecord
  2
DA_IMAGEDIMGROUP_2
  0
BLOCK_RECORD
  5
53
330
1
100
AcDbSymbolTableRecord
100
AcDbBlockTableRecord
  2
DA_IMAGEDIMGROUP_3
  0
BLOCK_RECORD
  5
56
330
1
100
AcDbSymbolTableRecord
100
AcDbBlockTableRecord
  2
DA_IMAGEDIMGROUP_4
  0
BLOCK_RECORD
  5
59
330
1
100
AcDbSymbolTableRecord
100
AcDbBlockTableRecord
  2
DA_IMAGEDIMGROUP_5
  0
BLOCK_RECORD
  5
5C
330
1
100
AcDbSymbolTableRecord
100
AcDbBlockTableRecord
  2
DA_IMAGEDIMGROUP_6
  0
BLOCK_RECORD
  5
5F
330
1
100
AcDbSymbolTableRecord
100
AcDbBlockTableRecord
  2
DA_IMAGEDIMGROUP_7
  0
BLOCK_RECORD
  5
62
330
1
100
AcDbSymbolTableRecord
100
AcDbBlockTableRecord
  2
DA_IMAGEDIMGROUP_8
  0
BLOCK_RECORD
  5
65
330
1
100
AcDbSymbolTableRecord
100
AcDbBlockTableRecord
  2
DA_IMAGEDIMGROUP_9
  0
BLOCK_RECORD
  5
68
330
1
100
AcDbSymbolTableRecord
100
AcDbBlockTableRecord
  2
DA_IMAGEDIMGROUP_10
  0
BLOCK_RECORD
  5
6B
330
1
100
AcDbSymbolTableRecord
100
AcDbBlockTableRecord
  2
DC_GROUP_2
  0
BLOCK_RECORD
  5
6E
330
1
100
AcDbSymbolTableRecord
100
AcDbBlockTableRecord
  2
DC_GROUP_3
  0
BLOCK_RECORD
  5
71
330
1
100
AcDbSymbolTableRecord
100
AcDbBlockTableRecord
  2
DA_IMAGEDIMGROUP_11
  0
BLOCK_RECORD
  5
74
330
1
100
AcDbSymbolTableRecord
100
AcDbBlockTableRecord
  2
DA_IMAGEDIMGROUP_12
  0
BLOCK_RECORD
  5
77
330
1
100
AcDbSymbolTableRecord
100
AcDbBlockTableRecord
  2
DA_IMAGEDIMGROUP_13
  0
BLOCK_RECORD
  5
7A
330
1
100
AcDbSymbolTableRecord
100
AcDbBlockTableRecord
  2
DC_GROUP_4
  0
BLOCK_RECORD
  5
7E
330
1
100
AcDbSymbolTableRecord
100
AcDbBlockTableRecord
  2
_DOT
  0
BLOCK_RECORD
  5
8B
330
1
100
AcDbSymbolTableRecord
100
AcDbBlockTableRecord
  2
_OPEN30
  0
ENDTAB
  0
ENDSEC
  0
SECTION
  2
BLOCKS
  0
BLOCK
  5
20
330
1F
100
AcDbEntity
  8
0
100
AcDbBlockBegin
  2
*MODEL_SPACE
 70
     0
 71
     0
 10
0.0
 20
0.0
 30
0.0
  3
*MODEL_SPACE
  1

  0
ENDBLK
  5
21
330
1F
100
AcDbEntity
  8
0
100
AcDbBlockEnd
  0
BLOCK
  5
1C
330
1B
100
AcDbEntity
 67
     1
  8
0
100
AcDbBlockBegin
  2
*PAPER_SPACE
 70
     0
 71
     0
 10
0.0
 20
0.0
 30
0.0
  3
*PAPER_SPACE
  1

  0
ENDBLK
  5
1D
330
1B
100
AcDbEntity
 67
     1
  8
0
100
AcDbBlockEnd
  0
BLOCK
  5
4B
330
4A
100
AcDbEntity
  8
0
100
AcDbBlockBegin
  2
DC_GROUP_1
 70
     0
 71
     0
 10
0.0
 20
0.0
 30
0.0
  3
DC_GROUP_1
  1

  0
LINE
  5
7D
330
4A
100
AcDbEntity
  8
0
  6
CONTINUOUS
 62
     9
100
AcDbLine
 10
20.2990563474092
 20
-15.50000005302704
 30
0.0
 11
11.93828689318086
 21
-43.00000003535133
 31
0.0
  0
INSERT
  5
83
330
4A
100
AcDbEntity
  8
0
 62
     9
100
AcDbBlockReference
  2
_DOT
 10
20.2990563474092
 20
-15.50000005302704
 30
0.0
 41
2.5
 42
2.5
 50
73.08926066844728
  0
LINE
  5
84
330
4A
100
AcDbEntity
  8
0
  6
CONTINUOUS
 62
     9
100
AcDbLine
 10
11.93828689318086
 20
-43.00000003535133
 30
0.0
 11
-32.86171310681915
 21
-43.00000003535133
 31
0.0
  0
TEXT
  5
86
330
4A
100
AcDbEntity
  8
0
 62
     7
100
AcDbText
 10
-32.86171310681915
 20
-42.00000003535133
 30
0.0
 40
4.0
  1
NAMEPLATE　LOT№
 41
0.7777777777777778
  7
FDASTYLE0
 72
     5
 11
11.93828689318086
 21
-42.00000003535133
 31
0.0
100
AcDbText
  0
ENDBLK
  5
4C
330
4A
100
AcDbEntity
  8
0
100
AcDbBlockEnd
  0
BLOCK
  5
4E
330
4D
100
AcDbEntity
  8
0
100
AcDbBlockBegin
  2
DA_IMAGEDIMGROUP_1
 70
     0
 71
     0
 10
0.0
 20
0.0
 30
0.0
  3
DA_IMAGEDIMGROUP_1
  1

  0
LINE
  5
87
330
4D
100
AcDbEntity
  8
0
  6
CONTINUOUS
 62
     9
100
AcDbLine
 10
-86.91171310681915
 20
-10.00000003535135
 30
0.0
 11
-86.91171310681915
 21
2.999999964648655
 31
0.0
  0
LINE
  5
88
330
4D
100
AcDbEntity
  8
0
  6
CONTINUOUS
 62
     9
100
AcDbLine
 10
-77.41171310681915
 20
-10.00000003535135
 30
0.0
 11
-77.41171310681915
 21
2.999999964648655
 31
0.0
  0
LINE
  5
89
330
4D
100
AcDbEntity
  8
0
  6
CONTINUOUS
 62
     9
100
AcDbLine
 10
-86.91171310681915
 20
1.999999964648655
 30
0.0
 11
-77.41171310681915
 21
1.999999964648655
 31
0.0
  0
LINE
  5
8A
330
4D
100
AcDbEntity
  8
0
  6
CONTINUOUS
 62
     9
100
AcDbLine
 10
-72.41171310681915
 20
1.999999964648655
 30
0.0
 11
-77.41171310681915
 21
1.999999964648655
 31
0.0
  0
INSERT
  5
91
330
4D
100
AcDbEntity
  8
0
 62
     9
100
AcDbBlockReference
  2
_OPEN30
 10
-77.41171310681915
 20
1.999999964648655
 30
0.0
 41
3.000002787824364
 42
2.999989273978464
 50
180.0
  0
LINE
  5
92
330
4D
100
AcDbEntity
  8
0
  6
CONTINUOUS
 62
     9
100
AcDbLine
 10
-91.91171310681915
 20
1.999999964648656
 30
0.0
 11
-86.91171310681915
 21
1.999999964648655
 31
0.0
  0
INSERT
  5
93
330
4D
100
AcDbEntity
  8
0
 62
     9
100
AcDbBlockReference
  2
_OPEN30
 10
-86.91171310681915
 20
1.999999964648655
 30
0.0
 41
3.000002787824364
 42
2.999989273978464
 50
360.0
  0
TEXT
  5
94
330
4D
100
AcDbEntity
  8
0
 62
     7
100
AcDbText
 10
-86.91510538641688
 20
2.999999964648655
 30
0.0
 40
4.0
  1
9.5
 41
0.7999999999999995
  7
FDASTYLE0
 72
     5
 11
-77.31510538641689
 21
2.999999964648655
 31
0.0
100
AcDbText
  0
TEXT
  5
95
330
4D
100
AcDbEntity
  8
0
 62
     7
100
AcDbText
 10
-76.31510538641689
 20
5.599999964648655
 30
0.0
 40
2.6
  1
±0.2
 41
0.7619047619047612
  7
FDASTYLE0
 72
     5
 11
-67.9951053864169
 21
5.599999964648655
 31
0.0
100
AcDbText
  0
ENDBLK
  5
4F
330
4D
100
AcDbEntity
  8
0
100
AcDbBlockEnd
  0
BLOCK
  5
51
330
50
100
AcDbEntity
  8
0
100
AcDbBlockBegin
  2
DA_IMAGEDIMGROUP_2
 70
     0
 71
     0
 10
0.0
 20
0.0
 30
0.0
  3
DA_IMAGEDIMGROUP_2
  1

  0
LINE
  5
96
330
50
100
AcDbEntity
  8
0
  6
CONTINUOUS
 62
     9
100
AcDbLine
 10
-26.66171310681914
 20
-14.00000003535135
 30
0.0
 11
-36.66171310681914
 21
-14.00000003535135
 31
0.0
  0
LINE
  5
97
330
50
100
AcDbEntity
  8
0
  6
CONTINUOUS
 62
     9
100
AcDbLine
 10
-26.66171310681914
 20
-11.50000003535135
 30
0.0
 11
-36.66171310681914
 21
-11.50000003535135
 31
0.0
  0
LINE
  5
98
330
50
100
AcDbEntity
  8
0
  6
CONTINUOUS
 62
     9
100
AcDbLine
 10
-35.66171310681914
 20
-14.00000003535135
 30
0.0
 11
-35.66171310681914
 21
-11.50000003535135
 31
0.0
  0
LINE
  5
99
330
50
100
AcDbEntity
  8
0
  6
CONTINUOUS
 62
     9
100
AcDbLine
 10
-35.66171310681914
 20
16.99999996464866
 30
0.0
 11
-35.66171310681914
 21
-11.50000003535135
 31
0.0
  0
INSERT
  5
9A
330
50
100
AcDbEntity
  8
0
 62
     9
100
AcDbBlockReference
  2
_OPEN30
 10
-35.66171310681914
 20
-11.50000003535135
 30
0.0
 41
3.000002787824364
 42
2.999989273978464
 50
270.0
  0
LINE
  5
9B
330
50
100
AcDbEntity
  8
0
  6
CONTINUOUS
 62
     9
100
AcDbLine
 10
-35.66171310681914
 20
-19.00000003535135
 30
0.0
 11
-35.66171310681914
 21
-14.00000003535135
 31
0.0
  0
INSERT
  5
9C
330
50
100
AcDbEntity
  8
0
 62
     9
100
AcDbBlockReference
  2
_OPEN30
 10
-35.66171310681914
 20
-14.00000003535135
 30
0.0
 41
3.000002787824364
 42
2.999989273978464
 50
90.0
  0
TEXT
  5
9D
330
50
100
AcDbEntity
  8
0
 62
     7
100
AcDbText
 10
-36.66171310681914
 20
-5.000000035351345
 30
0.0
 40
4.0
  1
2.5
 50
90.0
 41
0.8000000000000002
  7
FDASTYLE0
 72
     5
 11
-36.66171310681914
 21
4.599999964648657
 31
0.0
100
AcDbText
  0
TEXT
  5
9E
330
50
100
AcDbEntity
  8
0
 62
     7
100
AcDbText
 10
-39.26171310681913
 20
5.599999964648657
 30
0.0
 40
2.6
  1
±0.15
 50
90.0
 41
0.7692307692307692
  7
FDASTYLE0
 72
     5
 11
-39.26171310681913
 21
15.99999996464866
 31
0.0
100
AcDbText
  0
ENDBLK
  5
52
330
50
100
AcDbEntity
  8
0
100
AcDbBlockEnd
  0
BLOCK
  5
54
330
53
100
AcDbEntity
  8
0
100
AcDbBlockBegin
  2
DA_IMAGEDIMGROUP_3
 70
     0
 71
     0
 10
0.0
 20
0.0
 30
0.0
  3
DA_IMAGEDIMGROUP_3
  1

  0
LINE
  5
9F
330
53
100
AcDbEntity
  8
0
  6
CONTINUOUS
 62
     9
100
AcDbLine
 10
-26.66171310681914
 20
-14.00000003535135
 30
0.0
 11
-46.66171310681914
 21
-14.00000003535135
 31
0.0
  0
LINE
  5
A0
330
53
100
AcDbEntity
  8
0
  6
CONTINUOUS
 62
     9
100
AcDbLine
 10
-19.29568770303471
 20
-11.00000003535135
 30
0.0
 11
-46.66171310681914
 21
-11.00000003535135
 31
0.0
  0
LINE
  5
A1
330
53
100
AcDbEntity
  8
0
  6
CONTINUOUS
 62
     9
100
AcDbLine
 10
-45.66171310681914
 20
-14.00000003535135
 30
0.0
 11
-45.66171310681914
 21
-11.00000003535135
 31
0.0
  0
LINE
  5
A2
330
53
100
AcDbEntity
  8
0
  6
CONTINUOUS
 62
     9
100
AcDbLine
 10
-45.66171310681914
 20
15.77999996464866
 30
0.0
 11
-45.66171310681914
 21
-11.00000003535135
 31
0.0
  0
INSERT
  5
A3
330
53
100
AcDbEntity
  8
0
 62
     9
100
AcDbBlockReference
  2
_OPEN30
 10
-45.66171310681914
 20
-11.00000003535135
 30
0.0
 41
3.000002787824364
 42
2.999989273978464
 50
270.0
  0
LINE
  5
A4
330
53
100
AcDbEntity
  8
0
  6
CONTINUOUS
 62
     9
100
AcDbLine
 10
-45.66171310681914
 20
-19.00000003535135
 30
0.0
 11
-45.66171310681914
 21
-14.00000003535135
 31
0.0
  0
INSERT
  5
A5
330
53
100
AcDbEntity
  8
0
 62
     9
100
AcDbBlockReference
  2
_OPEN30
 10
-45.66171310681914
 20
-14.00000003535135
 30
0.0
 41
3.000002787824364
 42
2.999989273978464
 50
90.0
  0
TEXT
  5
A6
330
53
100
AcDbEntity
  8
0
 62
     7
100
AcDbText
 10
-46.66171310681914
 20
-5.100000035351345
 30
0.0
 40
4.0
  1
φ3
 50
90.0
 41
0.7272727272727271
  7
FDASTYLE0
 72
     5
 11
-46.66171310681914
 21
1.299999964648654
 31
0.0
100
AcDbText
  0
TEXT
  5
A7
330
53
100
AcDbEntity
  8
0
 62
     7
100
AcDbText
 10
-49.26171310681913
 20
2.299999964648654
 30
0.0
 40
2.6
  1
+0.005
 50
90.0
 41
0.8000000000000002
  7
FDASTYLE0
 72
     5
 11
-49.26171310681913
 21
14.77999996464866
 31
0.0
100
AcDbText
  0
TEXT
  5
A8
330
53
100
AcDbEntity
  8
0
 62
     7
100
AcDbText
 10
-46.46171310681913
 20
2.299999964648654
 30
0.0
 40
2.6
  1
-0.015
 50
90.0
 41
0.8000000000000002
  7
FDASTYLE0
 72
     5
 11
-46.46171310681913
 21
14.77999996464866
 31
0.0
100
AcDbText
  0
ENDBLK
  5
55
330
53
100
AcDbEntity
  8
0
100
AcDbBlockEnd
  0
BLOCK
  5
57
330
56
100
AcDbEntity
  8
0
100
AcDbBlockBegin
  2
DA_IMAGEDIMGROUP_4
 70
     0
 71
     0
 10
0.0
 20
0.0
 30
0.0
  3
DA_IMAGEDIMGROUP_4
  1

  0
LINE
  5
A9
330
56
100
AcDbEntity
  8
0
  6
CONTINUOUS
 62
     9
100
AcDbLine
 10
-16.46171310681914
 20
-15.50000003535135
 30
0.0
 11
-56.66171310681914
 21
-15.50000003535135
 31
0.0
  0
LINE
  5
AA
330
56
100
AcDbEntity
  8
0
  6
CONTINUOUS
 62
     9
100
AcDbLine
 10
-16.46171310681914
 20
-9.500000035351345
 30
0.0
 11
-56.66171310681914
 21
-9.500000035351345
 31
0.0
  0
LINE
  5
AB
330
56
100
AcDbEntity
  8
0
  6
CONTINUOUS
 62
     9
100
AcDbLine
 10
-55.66171310681914
 20
-15.50000003535135
 30
0.0
 11
-55.66171310681914
 21
-9.500000035351345
 31
0.0
  0
LINE
  5
AC
330
56
100
AcDbEntity
  8
0
  6
CONTINUOUS
 62
     9
100
AcDbLine
 10
-55.66171310681914
 20
15.77777996464866
 30
0.0
 11
-55.66171310681914
 21
-9.500000035351345
 31
0.0
  0
INSERT
  5
AD
330
56
100
AcDbEntity
  8
0
 62
     9
100
AcDbBlockReference
  2
_OPEN30
 10
-55.66171310681914
 20
-9.500000035351345
 30
0.0
 41
3.000002787824364
 42
2.999989273978464
 50
270.0
  0
LINE
  5
AE
330
56
100
AcDbEntity
  8
0
  6
CONTINUOUS
 62
     9
100
AcDbLine
 10
-55.66171310681914
 20
-20.50000003535135
 30
0.0
 11
-55.66171310681914
 21
-15.50000003535135
 31
0.0
  0
INSERT
  5
AF
330
56
100
AcDbEntity
  8
0
 62
     9
100
AcDbBlockReference
  2
_OPEN30
 10
-55.66171310681914
 20
-15.50000003535135
 30
0.0
 41
3.000002787824364
 42
2.999989273978464
 50
90.0
  0
TEXT
  5
B0
330
56
100
AcDbEntity
  8
0
 62
     7
100
AcDbText
 10
-56.66171310681914
 20
-5.102220035351344
 30
0.0
 40
4.0
  1
φ6
 50
90.0
 41
0.7272727272727271
  7
FDASTYLE0
 72
     5
 11
-56.66171310681914
 21
1.297779964648655
 31
0.0
100
AcDbText
  0
TEXT
  5
B1
330
56
100
AcDbEntity
  8
0
 62
     7
100
AcDbText
 10
-59.26171310681913
 20
2.297779964648655
 30
0.0
 40
2.6
  1
+0.005
 50
90.0
 41
0.8000000000000002
  7
FDASTYLE0
 72
     5
 11
-59.26171310681913
 21
14.77777996464866
 31
0.0
100
AcDbText
  0
TEXT
  5
B2
330
56
100
AcDbEntity
  8
0
 62
     7
100
AcDbText
 10
-56.46171310681913
 20
2.297779964648655
 30
0.0
 40
2.6
  1
-0.030
 50
90.0
 41
0.8000000000000002
  7
FDASTYLE0
 72
     5
 11
-56.46171310681913
 21
14.77777996464866
 31
0.0
100
AcDbText
  0
ENDBLK
  5
58
330
56
100
AcDbEntity
  8
0
100
AcDbBlockEnd
  0
BLOCK
  5
5A
330
59
100
AcDbEntity
  8
0
100
AcDbBlockBegin
  2
DA_IMAGEDIMGROUP_5
 70
     0
 71
     0
 10
0.0
 20
0.0
 30
0.0
  3
DA_IMAGEDIMGROUP_5
  1

  0
LINE
  5
B3
330
59
100
AcDbEntity
  8
0
  6
CONTINUOUS
 62
     9
100
AcDbLine
 10
-25.66171310681914
 20
-10.50000003535135
 30
0.0
 11
-25.66171310681914
 21
10.99999996464866
 31
0.0
  0
LINE
  5
B4
330
59
100
AcDbEntity
  8
0
  6
CONTINUOUS
 62
     9
100
AcDbLine
 10
-19.16171310681914
 20
-10.50000003535135
 30
0.0
 11
-19.16171310681914
 21
10.99999996464866
 31
0.0
  0
LINE
  5
B5
330
59
100
AcDbEntity
  8
0
  6
CONTINUOUS
 62
     9
100
AcDbLine
 10
-25.66171310681914
 20
9.999999964648655
 30
0.0
 11
-19.16171310681914
 21
9.999999964648655
 31
0.0
  0
LINE
  5
B6
330
59
100
AcDbEntity
  8
0
  6
CONTINUOUS
 62
     9
100
AcDbLine
 10
-14.16171310681914
 20
9.999999964648655
 30
0.0
 11
-19.16171310681914
 21
9.999999964648655
 31
0.0
  0
INSERT
  5
B7
330
59
100
AcDbEntity
  8
0
 62
     9
100
AcDbBlockReference
  2
_OPEN30
 10
-19.16171310681914
 20
9.999999964648655
 30
0.0
 41
3.000002787824364
 42
2.999989273978464
 50
180.0
  0
LINE
  5
B8
330
59
100
AcDbEntity
  8
0
  6
CONTINUOUS
 62
     9
100
AcDbLine
 10
-30.66171310681914
 20
9.999999964648655
 30
0.0
 11
-25.66171310681914
 21
9.999999964648655
 31
0.0
  0
INSERT
  5
B9
330
59
100
AcDbEntity
  8
0
 62
     9
100
AcDbBlockReference
  2
_OPEN30
 10
-25.66171310681914
 20
9.999999964648655
 30
0.0
 41
3.000002787824364
 42
2.999989273978464
 50
360.0
  0
TEXT
  5
BA
330
59
100
AcDbEntity
  8
0
 62
     7
100
AcDbText
 10
-25.20178542397057
 20
10.99999996464866
 30
0.0
 40
4.0
  1
6.5
 41
0.8000000000000002
  7
FDASTYLE0
 72
     5
 11
-15.60178542397057
 21
10.99999996464866
 31
0.0
100
AcDbText
  0
ENDBLK
  5
5B
330
59
100
AcDbEntity
  8
0
100
AcDbBlockEnd
  0
BLOCK
  5
5D
330
5C
100
AcDbEntity
  8
0
100
AcDbBlockBegin
  2
DA_IMAGEDIMGROUP_6
 70
     0
 71
     0
 10
0.0
 20
0.0
 30
0.0
  3
DA_IMAGEDIMGROUP_6
  1

  0
LINE
  5
BB
330
5C
100
AcDbEntity
  8
0
  6
CONTINUOUS
 62
     9
100
AcDbLine
 10
-15.66171310681914
 20
-8.750000035351345
 30
0.0
 11
-15.66171310681914
 21
2.999999964648655
 31
0.0
  0
LINE
  5
BC
330
5C
100
AcDbEntity
  8
0
  6
CONTINUOUS
 62
     9
100
AcDbLine
 10
-14.66171310681914
 20
-5.200000035351348
 30
0.0
 11
-14.66171310681914
 21
2.999999964648655
 31
0.0
  0
LINE
  5
BD
330
5C
100
AcDbEntity
  8
0
  6
CONTINUOUS
 62
     9
100
AcDbLine
 10
-15.66171310681914
 20
1.999999964648655
 30
0.0
 11
-14.66171310681914
 21
1.999999964648655
 31
0.0
  0
LINE
  5
BE
330
5C
100
AcDbEntity
  8
0
  6
CONTINUOUS
 62
     9
100
AcDbLine
 10
-6.563933106819139
 20
1.999999964648655
 30
0.0
 11
-14.66171310681914
 21
1.999999964648655
 31
0.0
  0
INSERT
  5
BF
330
5C
100
AcDbEntity
  8
0
 62
     9
100
AcDbBlockReference
  2
_OPEN30
 10
-14.66171310681914
 20
1.999999964648655
 30
0.0
 41
3.000002787824364
 42
2.999989273978464
 50
180.0
  0
LINE
  5
C0
330
5C
100
AcDbEntity
  8
0
  6
CONTINUOUS
 62
     9
100
AcDbLine
 10
-20.66171310681914
 20
1.999999964648655
 30
0.0
 11
-15.66171310681914
 21
1.999999964648655
 31
0.0
  0
INSERT
  5
C1
330
5C
100
AcDbEntity
  8
0
 62
     9
100
AcDbBlockReference
  2
_OPEN30
 10
-15.66171310681914
 20
1.999999964648655
 30
0.0
 41
3.000002787824364
 42
2.999989273978464
 50
360.0
  0
TEXT
  5
C2
330
5C
100
AcDbEntity
  8
0
 62
     7
100
AcDbText
 10
-10.76393310681914
 20
2.999999964648655
 30
0.0
 40
4.0
  1
1
 41
0.8
  7
FDASTYLE0
 72
     5
 11
-7.563933106819138
 21
2.999999964648655
 31
0.0
100
AcDbText
  0
ENDBLK
  5
5E
330
5C
100
AcDbEntity
  8
0
100
AcDbBlockEnd
  0
BLOCK
  5
60
330
5F
100
AcDbEntity
  8
0
100
AcDbBlockBegin
  2
DA_IMAGEDIMGROUP_7
 70
     0
 71
     0
 10
0.0
 20
0.0
 30
0.0
  3
DA_IMAGEDIMGROUP_7
  1

  0
LINE
  5
C3
330
5F
100
AcDbEntity
  8
0
  6
CONTINUOUS
 62
     9
100
AcDbLine
 10
-15.46171310681914
 20
-19.00000003535135
 30
0.0
 11
-66.66171310681915
 21
-19.00000003535135
 31
0.0
  0
LINE
  5
C4
330
5F
100
AcDbEntity
  8
0
  6
CONTINUOUS
 62
     9
100
AcDbLine
 10
-15.46171310681914
 20
-6.000000035351345
 30
0.0
 11
-66.66171310681915
 21
-6.000000035351345
 31
0.0
  0
LINE
  5
C5
330
5F
100
AcDbEntity
  8
0
  6
CONTINUOUS
 62
     9
100
AcDbLine
 10
-65.66171310681915
 20
-19.00000003535135
 30
0.0
 11
-65.66171310681915
 21
-6.000000035351345
 31
0.0
  0
INSERT
  5
C6
330
5F
100
AcDbEntity
  8
0
 62
     9
100
AcDbBlockReference
  2
_OPEN30
 10
-65.66171310681915
 20
-19.00000003535135
 30
0.0
 41
3.000002787824364
 42
2.999989273978464
 50
270.0
  0
INSERT
  5
C7
330
5F
100
AcDbEntity
  8
0
 62
     9
100
AcDbBlockReference
  2
_OPEN30
 10
-65.66171310681915
 20
-6.000000035351345
 30
0.0
 41
3.000002787824364
 42
2.999989273978464
 50
90.0
  0
TEXT
  5
C8
330
5F
100
AcDbEntity
  8
0
 62
     7
100
AcDbText
 10
-66.66171310681915
 20
-17.38571428571428
 30
0.0
 40
4.0
  1
φ13
 50
90.0
 41
0.7499999999999996
  7
FDASTYLE0
 72
     5
 11
-66.66171310681915
 21
-7.785714285714288
 31
0.0
100
AcDbText
  0
TEXT
  5
C9
330
5F
100
AcDbEntity
  8
0
 62
     7
100
AcDbText
 10
-69.26171310681914
 20
-6.785714285714288
 30
0.0
 40
2.6
  1
±0.2
 50
90.0
 41
0.7619047619047619
  7
FDASTYLE0
 72
     5
 11
-69.26171310681914
 21
1.534285714285712
 31
0.0
100
AcDbText
  0
ENDBLK
  5
61
330
5F
100
AcDbEntity
  8
0
100
AcDbBlockEnd
  0
BLOCK
  5
63
330
62
100
AcDbEntity
  8
0
100
AcDbBlockBegin
  2
DA_IMAGEDIMGROUP_8
 70
     0
 71
     0
 10
0.0
 20
0.0
 30
0.0
  3
DA_IMAGEDIMGROUP_8
  1

  0
LINE
  5
CA
330
62
100
AcDbEntity
  8
0
  6
CONTINUOUS
 62
     9
100
AcDbLine
 10
38.43828689318086
 20
-6.200000035351376
 30
0.0
 11
38.43828689318086
 21
10.99999996464866
 31
0.0
  0
LINE
  5
CB
330
62
100
AcDbEntity
  8
0
  6
CONTINUOUS
 62
     9
100
AcDbLine
 10
12.13828689318086
 20
-5.850000035351368
 30
0.0
 11
12.13828689318086
 21
10.99999996464866
 31
0.0
  0
LINE
  5
CC
330
62
100
AcDbEntity
  8
0
  6
CONTINUOUS
 62
     9
100
AcDbLine
 10
12.13828689318086
 20
9.999999964648655
 30
0.0
 11
38.43828689318086
 21
9.999999964648655
 31
0.0
  0
INSERT
  5
CD
330
62
100
AcDbEntity
  8
0
 62
     9
100
AcDbBlockReference
  2
_OPEN30
 10
12.13828689318086
 20
9.999999964648655
 30
0.0
 41
3.000002787824364
 42
2.999989273978464
 50
180.0
  0
INSERT
  5
CE
330
62
100
AcDbEntity
  8
0
 62
     9
100
AcDbBlockReference
  2
_OPEN30
 10
38.43828689318086
 20
9.999999964648655
 30
0.0
 41
3.000002787824364
 42
2.999989273978464
 50
360.0
  0
TEXT
  5
CF
330
62
100
AcDbEntity
  8
0
 62
     7
100
AcDbText
 10
18.88828689318086
 20
10.99999996464866
 30
0.0
 40
4.0
  1
26.3
 41
0.7999999999999998
  7
FDASTYLE0
 72
     5
 11
31.68828689318085
 21
10.99999996464866
 31
0.0
100
AcDbText
  0
ENDBLK
  5
64
330
62
100
AcDbEntity
  8
0
100
AcDbBlockEnd
  0
BLOCK
  5
66
330
65
100
AcDbEntity
  8
0
100
AcDbBlockBegin
  2
DA_IMAGEDIMGROUP_9
 70
     0
 71
     0
 10
0.0
 20
0.0
 30
0.0
  3
DA_IMAGEDIMGROUP_9
  1

  0
LINE
  5
D0
330
65
100
AcDbEntity
  8
0
  6
CONTINUOUS
 62
     9
100
AcDbLine
 10
-25.66171310681914
 20
-10.50000003535135
 30
0.0
 11
-25.66171310681914
 21
18.99999996464866
 31
0.0
  0
LINE
  5
D1
330
65
100
AcDbEntity
  8
0
  6
CONTINUOUS
 62
     9
100
AcDbLine
 10
-14.66171310681914
 20
-5.200000035351348
 30
0.0
 11
-14.66171310681914
 21
18.99999996464866
 31
0.0
  0
LINE
  5
D2
330
65
100
AcDbEntity
  8
0
  6
CONTINUOUS
 62
     9
100
AcDbLine
 10
38.43828689318086
 20
-6.200000035351376
 30
0.0
 11
38.43828689318086
 21
18.99999996464866
 31
0.0
  0
LINE
  5
D3
330
65
100
AcDbEntity
  8
0
  6
CONTINUOUS
 62
     9
100
AcDbLine
 10
-25.66171310681914
 20
17.99999996464866
 30
0.0
 11
-14.66171310681914
 21
17.99999996464866
 31
0.0
  0
INSERT
  5
D4
330
65
100
AcDbEntity
  8
0
 62
     9
100
AcDbBlockReference
  2
_OPEN30
 10
-25.66171310681914
 20
17.99999996464866
 30
0.0
 41
3.000002787824364
 42
2.999989273978464
 50
180.0
  0
INSERT
  5
D5
330
65
100
AcDbEntity
  8
0
 62
     9
100
AcDbBlockReference
  2
_OPEN30
 10
-14.66171310681914
 20
17.99999996464866
 30
0.0
 41
3.000002787824364
 42
2.999989273978464
 50
360.0
  0
LINE
  5
D6
330
65
100
AcDbEntity
  8
0
  6
CONTINUOUS
 62
     9
100
AcDbLine
 10
-14.66171310681914
 20
17.99999996464866
 30
0.0
 11
38.43828689318086
 21
17.99999996464866
 31
0.0
  0
INSERT
  5
D7
330
65
100
AcDbEntity
  8
0
 62
     9
100
AcDbBlockReference
  2
_OPEN30
 10
-14.66171310681914
 20
17.99999996464866
 30
0.0
 41
3.000002787824364
 42
2.999989273978464
 50
180.0
  0
INSERT
  5
D8
330
65
100
AcDbEntity
  8
0
 62
     9
100
AcDbBlockReference
  2
_OPEN30
 10
38.43828689318086
 20
17.99999996464866
 30
0.0
 41
3.000002787824364
 42
2.999989273978464
 50
360.0
  0
TEXT
  5
D9
330
65
100
AcDbEntity
  8
0
 62
     7
100
AcDbText
 10
-23.36171310681914
 20
18.99999996464866
 30
0.0
 40
4.0
  1
11
 41
0.7999999999999998
  7
FDASTYLE0
 72
     5
 11
-16.96171310681914
 21
18.99999996464866
 31
0.0
100
AcDbText
  0
TEXT
  5
DA
330
65
100
AcDbEntity
  8
0
 62
     7
100
AcDbText
 10
5.488286893180858
 20
18.99999996464866
 30
0.0
 40
4.0
  1
53.1
 41
0.8000000000000002
  7
FDASTYLE0
 72
     5
 11
18.28828689318086
 21
18.99999996464866
 31
0.0
100
AcDbText
  0
ENDBLK
  5
67
330
65
100
AcDbEntity
  8
0
100
AcDbBlockEnd
  0
BLOCK
  5
69
330
68
100
AcDbEntity
  8
0
100
AcDbBlockBegin
  2
DA_IMAGEDIMGROUP_10
 70
     0
 71
     0
 10
0.0
 20
0.0
 30
0.0
  3
DA_IMAGEDIMGROUP_10
  1

  0
LINE
  5
DB
330
68
100
AcDbEntity
  8
0
  6
CONTINUOUS
 62
     9
100
AcDbLine
 10
-14.66171310681914
 20
-19.80000003535134
 30
0.0
 11
-14.66171310681914
 21
-28.00000003535135
 31
0.0
  0
LINE
  5
DC
330
68
100
AcDbEntity
  8
0
  6
CONTINUOUS
 62
     9
100
AcDbLine
 10
-17.16171310681914
 20
-16.25000003535135
 30
0.0
 11
-17.16171310681914
 21
-28.00000003535135
 31
0.0
  0
LINE
  5
DD
330
68
100
AcDbEntity
  8
0
  6
CONTINUOUS
 62
     9
100
AcDbLine
 10
-17.16171310681914
 20
-27.00000003535135
 30
0.0
 11
-14.66171310681914
 21
-27.00000003535135
 31
0.0
  0
LINE
  5
DE
330
68
100
AcDbEntity
  8
0
  6
CONTINUOUS
 62
     9
100
AcDbLine
 10
6.236066893180862
 20
-27.00000003535135
 30
0.0
 11
-14.66171310681914
 21
-27.00000003535135
 31
0.0
  0
INSERT
  5
DF
330
68
100
AcDbEntity
  8
0
 62
     9
100
AcDbBlockReference
  2
_OPEN30
 10
-14.66171310681914
 20
-27.00000003535135
 30
0.0
 41
3.000002787824364
 42
2.999989273978464
 50
180.0
  0
LINE
  5
E0
330
68
100
AcDbEntity
  8
0
  6
CONTINUOUS
 62
     9
100
AcDbLine
 10
-22.16171310681914
 20
-27.00000003535135
 30
0.0
 11
-17.16171310681914
 21
-27.00000003535135
 31
0.0
  0
INSERT
  5
E1
330
68
100
AcDbEntity
  8
0
 62
     9
100
AcDbBlockReference
  2
_OPEN30
 10
-17.16171310681914
 20
-27.00000003535135
 30
0.0
 41
3.000002787824364
 42
2.999989273978464
 50
360.0
  0
TEXT
  5
E2
330
68
100
AcDbEntity
  8
0
 62
     7
100
AcDbText
 10
-10.76393310681914
 20
-26.00000003535135
 30
0.0
 40
4.0
  1
(2.5)
 41
0.8
  7
FDASTYLE0
 72
     5
 11
5.236066893180862
 21
-26.00000003535135
 31
0.0
100
AcDbText
  0
ENDBLK
  5
6A
330
68
100
AcDbEntity
  8
0
100
AcDbBlockEnd
  0
BLOCK
  5
6C
330
6B
100
AcDbEntity
  8
0
100
AcDbBlockBegin
  2
DC_GROUP_2
 70
     0
 71
     0
 10
0.0
 20
0.0
 30
0.0
  3
DC_GROUP_2
  1

  0
LINE
  5
E3
330
6B
100
AcDbEntity
  8
0
  6
CONTINUOUS
 62
     9
100
AcDbLine
 10
43.53828689318085
 20
35.80000000000001
 30
0.0
 11
48.53828689318085
 21
46.00000003535133
 31
0.0
  0
INSERT
  5
E4
330
6B
100
AcDbEntity
  8
0
 62
     9
100
AcDbBlockReference
  2
_OPEN30
 10
43.53828689318085
 20
35.80000000000001
 30
0.0
 41
3.000002787824364
 42
2.999989273978464
 50
243.886087448192
  0
LINE
  5
E5
330
6B
100
AcDbEntity
  8
0
  6
CONTINUOUS
 62
     9
100
AcDbLine
 10
48.53828689318085
 20
46.00000003535133
 30
0.0
 11
67.73828689318086
 21
46.00000003535133
 31
0.0
  0
TEXT
  5
E6
330
6B
100
AcDbEntity
  8
0
 62
     7
100
AcDbText
 10
48.53828689318085
 20
47.00000003535133
 30
0.0
 40
4.0
  1
（+）ＲＥＤ
 41
0.6857142857142858
  7
FDASTYLE0
 72
     5
 11
67.73828689318086
 21
47.00000003535133
 31
0.0
100
AcDbText
  0
ENDBLK
  5
6D
330
6B
100
AcDbEntity
  8
0
100
AcDbBlockEnd
  0
BLOCK
  5
6F
330
6E
100
AcDbEntity
  8
0
100
AcDbBlockBegin
  2
DC_GROUP_3
 70
     0
 71
     0
 10
0.0
 20
0.0
 30
0.0
  3
DC_GROUP_3
  1

  0
LINE
  5
E7
330
6E
100
AcDbEntity
  8
0
  6
CONTINUOUS
 62
     9
100
AcDbLine
 10
43.53828689318085
 20
28.20000000000001
 30
0.0
 11
48.53828689318085
 21
17.99999996464866
 31
0.0
  0
INSERT
  5
E8
330
6E
100
AcDbEntity
  8
0
 62
     9
100
AcDbBlockReference
  2
_OPEN30
 10
43.53828689318085
 20
28.20000000000001
 30
0.0
 41
3.000002787824364
 42
2.999989273978464
 50
116.1139125518079
  0
LINE
  5
E9
330
6E
100
AcDbEntity
  8
0
  6
CONTINUOUS
 62
     9
100
AcDbLine
 10
48.53828689318085
 20
17.99999996464866
 30
0.0
 11
74.13828689318086
 21
17.99999996464866
 31
0.0
  0
TEXT
  5
EA
330
6E
100
AcDbEntity
  8
0
 62
     7
100
AcDbText
 10
48.53828689318085
 20
18.99999996464866
 30
0.0
 40
4.0
  1
（-）ＢＬＡＣＫ
 41
0.6808510638297874
  7
FDASTYLE0
 72
     5
 11
74.13828689318086
 21
18.99999996464866
 31
0.0
100
AcDbText
  0
ENDBLK
  5
70
330
6E
100
AcDbEntity
  8
0
100
AcDbBlockEnd
  0
BLOCK
  5
72
330
71
100
AcDbEntity
  8
0
100
AcDbBlockBegin
  2
DA_IMAGEDIMGROUP_11
 70
     0
 71
     0
 10
0.0
 20
0.0
 30
0.0
  3
DA_IMAGEDIMGROUP_11
  1

  0
LINE
  5
EB
330
71
100
AcDbEntity
  8
0
  6
CONTINUOUS
 62
     9
100
AcDbLine
 10
27.2990563474092
 20
-18.50000007070273
 30
0.0
 11
27.2990563474092
 21
-6.500000000000036
 31
0.0
  0
LINE
  5
EC
330
71
100
AcDbEntity
  8
0
  6
CONTINUOUS
 62
     9
100
AcDbLine
 10
27.2990563474092
 20
-39.10000007070272
 30
0.0
 11
27.2990563474092
 21
-18.50000007070273
 31
0.0
  0
INSERT
  5
ED
330
71
100
AcDbEntity
  8
0
 62
     9
100
AcDbBlockReference
  2
_OPEN30
 10
27.2990563474092
 20
-18.50000007070273
 30
0.0
 41
3.000002787824364
 42
2.999989273978464
 50
90.0
  0
LINE
  5
EE
330
71
100
AcDbEntity
  8
0
  6
CONTINUOUS
 62
     9
100
AcDbLine
 10
27.2990563474092
 20
-1.500000000000036
 30
0.0
 11
27.2990563474092
 21
-6.500000000000036
 31
0.0
  0
INSERT
  5
EF
330
71
100
AcDbEntity
  8
0
 62
     9
100
AcDbBlockReference
  2
_OPEN30
 10
27.2990563474092
 20
-6.500000000000036
 30
0.0
 41
3.000002787824364
 42
2.999989273978464
 50
269.9999999999999
  0
TEXT
  5
F0
330
71
100
AcDbEntity
  8
0
 62
     7
100
AcDbText
 10
26.2990563474092
 20
-38.10000007070273
 30
0.0
 40
4.0
  1
φ12
 50
90.0
 41
0.7500000000000001
  7
FDASTYLE0
 72
     5
 11
26.2990563474092
 21
-28.50000007070273
 31
0.0
100
AcDbText
  0
TEXT
  5
F1
330
71
100
AcDbEntity
  8
0
 62
     7
100
AcDbText
 10
23.6990563474092
 20
-27.50000007070273
 30
0.0
 40
2.6
  1
±0.2
 50
90.0
 41
0.7619047619047619
  7
FDASTYLE0
 72
     5
 11
23.6990563474092
 21
-19.18000007070273
 31
0.0
100
AcDbText
  0
ENDBLK
  5
73
330
71
100
AcDbEntity
  8
0
100
AcDbBlockEnd
  0
BLOCK
  5
75
330
74
100
AcDbEntity
  8
0
100
AcDbBlockBegin
  2
DA_IMAGEDIMGROUP_12
 70
     0
 71
     0
 10
0.0
 20
0.0
 30
0.0
  3
DA_IMAGEDIMGROUP_12
  1

  0
LINE
  5
F2
330
74
100
AcDbEntity
  8
0
  6
CONTINUOUS
 62
     9
100
AcDbLine
 10
86.91171310681915
 20
-11.30000003535137
 30
0.0
 11
86.91171310681915
 21
10.99999996464866
 31
0.0
  0
LINE
  5
F3
330
74
100
AcDbEntity
  8
0
  6
CONTINUOUS
 62
     9
100
AcDbLine
 10
38.43828689318086
 20
-6.200000035351376
 30
0.0
 11
38.43828689318086
 21
10.99999996464866
 31
0.0
  0
LINE
  5
F4
330
74
100
AcDbEntity
  8
0
  6
CONTINUOUS
 62
     9
100
AcDbLine
 10
38.43828689318086
 20
9.999999964648655
 30
0.0
 11
86.91171310681915
 21
9.999999964648655
 31
0.0
  0
INSERT
  5
F5
330
74
100
AcDbEntity
  8
0
 62
     9
100
AcDbBlockReference
  2
_OPEN30
 10
38.43828689318086
 20
9.999999964648655
 30
0.0
 41
3.000002787824364
 42
2.999989273978464
 50
180.0
  0
INSERT
  5
F6
330
74
100
AcDbEntity
  8
0
 62
     9
100
AcDbBlockReference
  2
_OPEN30
 10
86.91171310681915
 20
9.999999964648655
 30
0.0
 41
3.000002787824364
 42
2.999989273978464
 50
360.0
  0
TEXT
  5
F7
330
74
100
AcDbEntity
  8
0
 62
     7
100
AcDbText
 10
54.255
 20
10.99999996464866
 30
0.0
 40
4.0
  1
140
 41
0.8000000000000007
  7
FDASTYLE0
 72
     5
 11
63.855
 21
10.99999996464866
 31
0.0
100
AcDbText
  0
TEXT
  5
F8
330
74
100
AcDbEntity
  8
0
 62
     7
100
AcDbText
 10
64.85499999999999
 20
13.59999996464866
 30
0.0
 40
2.6
  1
±10
 41
0.7499999999999993
  7
FDASTYLE0
 72
     5
 11
71.09499999999999
 21
13.59999996464866
 31
0.0
100
AcDbText
  0
ENDBLK
  5
76
330
74
100
AcDbEntity
  8
0
100
AcDbBlockEnd
  0
BLOCK
  5
78
330
77
100
AcDbEntity
  8
0
100
AcDbBlockBegin
  2
DA_IMAGEDIMGROUP_13
 70
     0
 71
     0
 10
0.0
 20
0.0
 30
0.0
  3
DA_IMAGEDIMGROUP_13
  1

  0
LINE
  5
F9
330
77
100
AcDbEntity
  8
0
  6
CONTINUOUS
 62
     9
100
AcDbLine
 10
86.91171310681915
 20
-11.30000003535137
 30
0.0
 11
86.91171310681915
 21
2.999999964648655
 31
0.0
  0
LINE
  5
FA
330
77
100
AcDbEntity
  8
0
  6
CONTINUOUS
 62
     9
100
AcDbLine
 10
82.312475867193
 20
-11.10000003535137
 30
0.0
 11
82.312475867193
 21
2.999999964648655
 31
0.0
  0
LINE
  5
FB
330
77
100
AcDbEntity
  8
0
  6
CONTINUOUS
 62
     9
100
AcDbLine
 10
82.312475867193
 20
1.999999964648655
 30
0.0
 11
86.91171310681915
 21
1.999999964648655
 31
0.0
  0
LINE
  5
FC
330
77
100
AcDbEntity
  8
0
  6
CONTINUOUS
 62
     9
100
AcDbLine
 10
71.01469586719301
 20
1.999999964648657
 30
0.0
 11
82.312475867193
 21
1.999999964648655
 31
0.0
  0
INSERT
  5
FD
330
77
100
AcDbEntity
  8
0
 62
     9
100
AcDbBlockReference
  2
_OPEN30
 10
82.312475867193
 20
1.999999964648655
 30
0.0
 41
3.000002787824364
 42
2.999989273978464
 50
360.0
  0
LINE
  5
FE
330
77
100
AcDbEntity
  8
0
  6
CONTINUOUS
 62
     9
100
AcDbLine
 10
91.91171310681915
 20
1.999999964648653
 30
0.0
 11
86.91171310681915
 21
1.999999964648655
 31
0.0
  0
INSERT
  5
FF
330
77
100
AcDbEntity
  8
0
 62
     9
100
AcDbBlockReference
  2
_OPEN30
 10
86.91171310681915
 20
1.999999964648655
 30
0.0
 41
3.000002787824364
 42
2.999989273978464
 50
180.0
  0
TEXT
  5
100
330
77
100
AcDbEntity
  8
0
 62
     7
100
AcDbText
 10
72.01469586719301
 20
2.999999964648655
 30
0.0
 40
4.0
  1
10
 41
0.8000000000000007
  7
FDASTYLE0
 72
     5
 11
78.41469586719302
 21
2.999999964648655
 31
0.0
100
AcDbText
  0
TEXT
  5
101
330
77
100
AcDbEntity
  8
0
 62
     7
100
AcDbText
 10
79.41469586719302
 20
5.599999964648657
 30
0.0
 40
2.6
  1
±2
 41
0.7272727272727266
  7
FDASTYLE0
 72
     5
 11
83.57469586719301
 21
5.599999964648657
 31
0.0
100
AcDbText
  0
ENDBLK
  5
79
330
77
100
AcDbEntity
  8
0
100
AcDbBlockEnd
  0
BLOCK
  5
7B
330
7A
100
AcDbEntity
  8
0
100
AcDbBlockBegin
  2
DC_GROUP_4
 70
     0
 71
     0
 10
0.0
 20
0.0
 30
0.0
  3
DC_GROUP_4
  1

  0
LINE
  5
102
330
7A
100
AcDbEntity
  8
0
  6
CONTINUOUS
 62
     9
100
AcDbLine
 10
-86.9610589243391
 20
-13.28344753856601
 30
0.0
 11
-88.66171310681915
 21
-35.00000003535135
 31
0.0
  0
INSERT
  5
103
330
7A
100
AcDbEntity
  8
0
 62
     9
100
AcDbBlockReference
  2
_OPEN30
 10
-86.9610589243391
 20
-13.28344753856601
 30
0.0
 41
3.000002787824364
 42
2.999989273978464
 50
85.52222449791368
  0
LINE
  5
104
330
7A
100
AcDbEntity
  8
0
  6
CONTINUOUS
 62
     9
100
AcDbLine
 10
-88.66171310681915
 20
-35.00000003535135
 30
0.0
 11
-18.26171310681914
 21
-35.00000003535135
 31
0.0
  0
TEXT
  5
105
330
7A
100
AcDbEntity
  8
0
 62
     7
100
AcDbText
 10
-88.66171310681915
 20
-34.00000003535135
 30
0.0
 40
4.0
  1
　2-M2(P=0.4)DEPTH 3MAX
 41
0.7927927927927929
  7
FDASTYLE0
 72
     5
 11
-18.26171310681914
 21
-34.00000003535135
 31
0.0
100
AcDbText
  0
ENDBLK
  5
7C
330
7A
100
AcDbEntity
  8
0
100
AcDbBlockEnd
  0
BLOCK
  5
7F
330
7E
100
AcDbEntity
  8
0
100
AcDbBlockBegin
  2
_DOT
 70
     0
 71
     0
 10
0.0
 20
0.0
 30
0.0
  3
_DOT
  1

  0
LWPOLYLINE
  5
81
330
7E
100
AcDbEntity
  8
0
  6
BYBLOCK
 62
     0
100
AcDbPolyline
 90
        2
 70
     1
 43
0.5
 10
-0.25
 20
0.0
 42
1.0
 10
0.25
 20
0.0
 42
1.0
  0
LINE
  5
82
330
7E
100
AcDbEntity
  8
0
  6
BYBLOCK
 62
     0
100
AcDbLine
 10
-0.5
 20
0.0
 30
0.0
 11
-1.0
 21
0.0
 31
0.0
  0
ENDBLK
  5
80
330
7E
100
AcDbEntity
  8
0
100
AcDbBlockEnd
  0
BLOCK
  5
8C
330
8B
100
AcDbEntity
  8
0
100
AcDbBlockBegin
  2
_OPEN30
 70
     0
 71
     0
 10
0.0
 20
0.0
 30
0.0
  3
_OPEN30
  1

  0
LINE
  5
8E
330
8B
100
AcDbEntity
  8
0
  6
BYBLOCK
 62
     0
100
AcDbLine
 10
-1.0
 20
0.267949
 30
0.0
 11
0.0
 21
0.0
 31
0.0
  0
LINE
  5
8F
330
8B
100
AcDbEntity
  8
0
  6
BYBLOCK
 62
     0
100
AcDbLine
 10
0.0
 20
0.0
 30
0.0
 11
-1.0
 21
-0.267949
 31
0.0
  0
LINE
  5
90
330
8B
100
AcDbEntity
  8
0
  6
BYBLOCK
 62
     0
100
AcDbLine
 10
0.0
 20
0.0
 30
0.0
 11
-1.0
 21
0.0
 31
0.0
  0
ENDBLK
  5
8D
330
8B
100
AcDbEntity
  8
0
100
AcDbBlockEnd
  0
ENDSEC
  0
SECTION
  2
ENTITIES
  0
LINE
  5
106
330
1F
100
AcDbEntity
  8
0
  6
CENTER
 62
     9
100
AcDbLine
 10
-74.66171310681915
 20
-12.50000003535135
 30
0.0
 11
-89.66171310681915
 21
-12.50000003535135
 31
0.0
  0
LINE
  5
107
330
1F
100
AcDbEntity
  8
0
  6
CENTER
 62
     9
100
AcDbLine
 10
-82.16171310681915
 20
-5.000000035351345
 30
0.0
 11
-82.16171310681915
 21
-20.00000003535135
 31
0.0
  0
LINE
  5
108
330
1F
100
AcDbEntity
  8
0
  6
CENTER
 62
     9
100
AcDbLine
 10
-77.41171310681915
 20
-11.00000003535135
 30
0.0
 11
-77.41171310681915
 21
-14.00000003535135
 31
0.0
  0
LINE
  5
109
330
1F
100
AcDbEntity
  8
0
  6
CENTER
 62
     9
100
AcDbLine
 10
-86.91171310681915
 20
-14.00000003535135
 30
0.0
 11
-86.91171310681915
 21
-11.00000003535135
 31
0.0
  0
LINE
  5
10A
330
1F
100
AcDbEntity
  8
0
  6
CENTER
 62
     9
100
AcDbLine
 10
-75.16171310681915
 20
-12.50000003535135
 30
0.0
 11
-78.16171310681915
 21
-12.50000003535135
 31
0.0
  0
LINE
  5
10B
330
1F
100
AcDbEntity
  8
0
  6
CENTER
 62
     9
100
AcDbLine
 10
39.53828689318085
 20
-12.50000003535136
 30
0.0
 11
-26.66171310681914
 21
-12.50000003535136
 31
0.0
  0
LINE
  5
10C
330
1F
100
AcDbEntity
  8
0
  6
CENTER
 62
     9
100
AcDbLine
 10
20.71097648397156
 20
32.0
 30
0.0
 11
39.53828689318085
 21
32.0
 31
0.0
  0
CIRCLE
  5
10D
330
1F
100
AcDbEntity
  8
0
  6
CONTINUOUS
 62
     9
100
AcDbCircle
 10
-77.41171310681915
 20
-12.50000003535135
 30
0.0
 40
1.0
  0
CIRCLE
  5
10E
330
1F
100
AcDbEntity
  8
0
  6
CONTINUOUS
 62
     9
100
AcDbCircle
 10
-86.91171310681915
 20
-12.50000003535135
 30
0.0
 40
1.0
  0
LINE
  5
10F
330
1F
100
AcDbEntity
  8
0
  6
CONTINUOUS
 62
     9
100
AcDbLine
 10
82.312475867193
 20
-12.30000003535137
 30
0.0
 11
86.91171310681915
 21
-12.30000003535137
 31
0.0
  0
LINE
  5
110
330
1F
100
AcDbEntity
  8
0
  6
CONTINUOUS
 62
     9
100
AcDbLine
 10
82.312475867193
 20
-12.70000003535136
 30
0.0
 11
86.91171310681915
 21
-12.70000003535136
 31
0.0
  0
LINE
  5
111
330
1F
100
AcDbEntity
  8
0
  6
CONTINUOUS
 62
     9
100
AcDbLine
 10
82.312475867193
 20
-12.60000003535137
 30
0.0
 11
86.91171310681915
 21
-12.60000003535135
 31
0.0
  0
LINE
  5
112
330
1F
100
AcDbEntity
  8
0
  6
CONTINUOUS
 62
     9
100
AcDbLine
 10
82.312475867193
 20
-12.40000003535137
 30
0.0
 11
86.91171310681915
 21
-12.40000003535137
 31
0.0
  0
LINE
  5
113
330
1F
100
AcDbEntity
  8
0
  6
CONTINUOUS
 62
     9
100
AcDbLine
 10
58.32778132279482
 20
-11.44810157280305
 30
0.0
 11
58.75855055356405
 21
-13.75859108329256
 31
0.0
  0
LINE
  5
114
330
1F
100
AcDbEntity
  8
0
  6
CONTINUOUS
 62
     9
100
AcDbLine
 10
58.99351558852909
 20
-11.44810157280305
 30
0.0
 11
59.42428481929833
 21
-13.75859108329256
 31
0.0
  0
LINE
  5
115
330
1F
100
AcDbEntity
  8
0
  6
CONTINUOUS
 62
     9
100
AcDbLine
 10
82.312475867193
 20
35.60000000000001
 30
0.0
 11
86.91171310681915
 21
35.60000000000001
 31
0.0
  0
LINE
  5
116
330
1F
100
AcDbEntity
  8
0
  6
CONTINUOUS
 62
     9
100
AcDbLine
 10
82.31247586719303
 20
35.20000000000002
 30
0.0
 11
86.91171310681915
 21
35.20000000000002
 31
0.0
  0
LINE
  5
117
330
1F
100
AcDbEntity
  8
0
  6
CONTINUOUS
 62
     9
100
AcDbLine
 10
82.312475867193
 20
35.30000000000001
 30
0.0
 11
86.91171310681915
 21
35.30000000000001
 31
0.0
  0
LINE
  5
118
330
1F
100
AcDbEntity
  8
0
  6
CONTINUOUS
 62
     9
100
AcDbLine
 10
82.312475867193
 20
35.50000000000001
 30
0.0
 11
86.91171310681915
 21
35.50000000000001
 31
0.0
  0
LINE
  5
119
330
1F
100
AcDbEntity
  8
0
  6
CONTINUOUS
 62
     9
100
AcDbLine
 10
82.312475867193
 20
28.80000000000001
 30
0.0
 11
86.91171310681915
 21
28.80000000000001
 31
0.0
  0
LINE
  5
11A
330
1F
100
AcDbEntity
  8
0
  6
CONTINUOUS
 62
     9
100
AcDbLine
 10
82.312475867193
 20
28.40000000000002
 30
0.0
 11
86.91171310681915
 21
28.40000000000002
 31
0.0
  0
LINE
  5
11B
330
1F
100
AcDbEntity
  8
0
  6
CONTINUOUS
 62
     9
100
AcDbLine
 10
82.312475867193
 20
28.50000000000001
 30
0.0
 11
86.91171310681915
 21
28.50000000000003
 31
0.0
  0
LINE
  5
11C
330
1F
100
AcDbEntity
  8
0
  6
CONTINUOUS
 62
     9
100
AcDbLine
 10
82.312475867193
 20
28.70000000000001
 30
0.0
 11
86.91171310681915
 21
28.70000000000001
 31
0.0
  0
LINE
  5
11D
330
1F
100
AcDbEntity
  8
0
  6
CONTINUOUS
 62
     9
100
AcDbLine
 10
58.32778132279482
 20
36.45189846254831
 30
0.0
 11
58.75855055356405
 21
34.1414089520588
 31
0.0
  0
LINE
  5
11E
330
1F
100
AcDbEntity
  8
0
  6
CONTINUOUS
 62
     9
100
AcDbLine
 10
58.99351558852909
 20
36.45189846254831
 30
0.0
 11
59.42428481929832
 21
34.1414089520588
 31
0.0
  0
LINE
  5
11F
330
1F
100
AcDbEntity
  8
0
  6
CONTINUOUS
 62
     9
100
AcDbLine
 10
58.32778132279482
 20
29.65189846254831
 30
0.0
 11
58.75855055356405
 21
27.3414089520588
 31
0.0
  0
LINE
  5
120
330
1F
100
AcDbEntity
  8
0
  6
CONTINUOUS
 62
     9
100
AcDbLine
 10
58.99351558852909
 20
29.65189846254831
 30
0.0
 11
59.42428481929832
 21
27.3414089520588
 31
0.0
  0
LINE
  5
121
330
1F
100
AcDbEntity
  8
0
  6
DIVIDE
 62
     9
100
AcDbLine
 10
16.7990563474092
 20
-6.500000000000039
 30
0.0
 11
16.7990563474092
 21
-18.50000007070273
 31
0.0
  0
LINE
  5
122
330
1F
100
AcDbEntity
  8
0
  6
DIVIDE
 62
     9
100
AcDbLine
 10
30.7990563474092
 20
-6.500000000000039
 30
0.0
 11
30.7990563474092
 21
-18.50000007070273
 31
0.0
  0
LINE
  5
123
330
1F
100
AcDbEntity
  8
0
  6
DIVIDE
 62
     9
100
AcDbLine
 10
30.7990563474092
 20
38.00000003535133
 30
0.0
 11
30.7990563474092
 21
25.99999996464866
 31
0.0
  0
CIRCLE
  5
124
330
1F
100
AcDbEntity
  8
0
  6
CONTINUOUS
 62
     3
100
AcDbCircle
 10
-82.16171310681915
 20
-12.50000003535135
 30
0.0
 40
6.5
  0
CIRCLE
  5
125
330
1F
100
AcDbEntity
  8
0
  6
CONTINUOUS
 62
     3
100
AcDbCircle
 10
-77.41171310681915
 20
-12.50000003535135
 30
0.0
 40
0.7850000000000001
  0
CIRCLE
  5
126
330
1F
100
AcDbEntity
  8
0
  6
CONTINUOUS
 62
     3
100
AcDbCircle
 10
-86.91171310681915
 20
-12.50000003535135
 30
0.0
 40
0.7850000000000001
  0
CIRCLE
  5
127
330
1F
100
AcDbEntity
  8
0
  6
CONTINUOUS
 62
     3
100
AcDbCircle
 10
-82.16171310681915
 20
-12.50000003535135
 30
0.0
 40
1.5
  0
CIRCLE
  5
128
330
1F
100
AcDbEntity
  8
0
  6
CONTINUOUS
 62
     3
100
AcDbCircle
 10
-82.16171310681915
 20
-12.50000003535135
 30
0.0
 40
2.75
  0
CIRCLE
  5
129
330
1F
100
AcDbEntity
  8
0
  6
CONTINUOUS
 62
     3
100
AcDbCircle
 10
-82.16171310681915
 20
-12.50000003535135
 30
0.0
 40
3.0
  0
LINE
  5
12A
330
1F
100
AcDbEntity
  8
0
  6
CONTINUOUS
 62
     3
100
AcDbLine
 10
-81.04367911806926
 20
-11.50000003535135
 30
0.0
 11
-83.27974709556906
 21
-11.50000003535135
 31
0.0
  0
LINE
  5
12B
330
1F
100
AcDbEntity
  8
0
  6
CONTINUOUS
 62
     3
100
AcDbLine
 10
12.13828689318086
 20
-18.15000003535134
 30
0.0
 11
12.13828689318086
 21
-6.850000035351354
 31
0.0
  0
LINE
  5
12C
330
1F
100
AcDbEntity
  8
0
  6
CONTINUOUS
 62
     3
100
AcDbLine
 10
-14.46171310681914
 20
-6.000000035351345
 30
0.0
 11
11.83828689318085
 21
-6.000000035351345
 31
0.0
  0
LINE
  5
12D
330
1F
100
AcDbEntity
  8
0
  6
CONTINUOUS
 62
     3
100
AcDbLine
 10
-14.46171310681914
 20
-19.00000003535135
 30
0.0
 11
11.83828689318085
 21
-19.00000003535135
 31
0.0
  0
LINE
  5
12E
330
1F
100
AcDbEntity
  8
0
  6
CONTINUOUS
 62
     3
100
AcDbLine
 10
-14.66171310681914
 20
-18.80000003535134
 30
0.0
 11
-14.66171310681914
 21
-6.200000035351348
 31
0.0
  0
LINE
  5
12F
330
1F
100
AcDbEntity
  8
0
  6
CONTINUOUS
 62
     3
100
AcDbLine
 10
11.83828689318085
 20
-6.000000035351345
 30
0.0
 11
11.93828689318086
 21
-6.100000035351346
 31
0.0
  0
LINE
  5
130
330
1F
100
AcDbEntity
  8
0
  6
CONTINUOUS
 62
     3
100
AcDbLine
 10
11.83828689318085
 20
-19.00000003535135
 30
0.0
 11
11.93828689318086
 21
-18.90000003535134
 31
0.0
  0
LINE
  5
131
330
1F
100
AcDbEntity
  8
0
  6
CONTINUOUS
 62
     3
100
AcDbLine
 10
-14.46171310681914
 20
-6.000000035351345
 30
0.0
 11
-14.66171310681914
 21
-6.200000035351348
 31
0.0
  0
LINE
  5
132
330
1F
100
AcDbEntity
  8
0
  6
CONTINUOUS
 62
     3
100
AcDbLine
 10
-14.46171310681914
 20
-19.00000003535135
 30
0.0
 11
-14.66171310681914
 21
-18.80000003535134
 31
0.0
  0
LINE
  5
133
330
1F
100
AcDbEntity
  8
0
  6
CONTINUOUS
 62
     3
100
AcDbLine
 10
-14.46171310681914
 20
-6.000000035351345
 30
0.0
 11
-14.46171310681914
 21
-19.00000003535135
 31
0.0
  0
LINE
  5
134
330
1F
100
AcDbEntity
  8
0
  6
CONTINUOUS
 62
     3
100
AcDbLine
 10
11.93828689318086
 20
-6.850000035351354
 30
0.0
 11
12.13828689318086
 21
-6.850000035351354
 31
0.0
  0
LINE
  5
135
330
1F
100
AcDbEntity
  8
0
  6
CONTINUOUS
 62
     3
100
AcDbLine
 10
11.93828689318086
 20
-18.15000003535134
 30
0.0
 11
12.13828689318086
 21
-18.15000003535134
 31
0.0
  0
LINE
  5
136
330
1F
100
AcDbEntity
  8
0
  6
CONTINUOUS
 62
     3
100
AcDbLine
 10
11.93828689318086
 20
-6.100000035351346
 30
0.0
 11
11.93828689318086
 21
-6.850000035351354
 31
0.0
  0
LINE
  5
137
330
1F
100
AcDbEntity
  8
0
  6
CONTINUOUS
 62
     3
100
AcDbLine
 10
11.93828689318086
 20
-6.850000035351354
 30
0.0
 11
11.93828689318086
 21
-18.90000003535134
 31
0.0
  0
LINE
  5
138
330
1F
100
AcDbEntity
  8
0
  6
CONTINUOUS
 62
     3
100
AcDbLine
 10
-25.66171310681914
 20
-11.50000003535135
 30
0.0
 11
-25.66171310681914
 21
-14.00000003535135
 31
0.0
  0
LINE
  5
139
330
1F
100
AcDbEntity
  8
0
  6
CONTINUOUS
 62
     3
100
AcDbLine
 10
-25.66171310681914
 20
-11.50000003535135
 30
0.0
 11
-19.16171310681914
 21
-11.50000003535135
 31
0.0
  0
LINE
  5
13A
330
1F
100
AcDbEntity
  8
0
  6
CONTINUOUS
 62
     3
100
AcDbLine
 10
-15.66171310681914
 20
-9.700000035351348
 30
0.0
 11
-15.66171310681914
 21
-15.30000003535134
 31
0.0
  0
LINE
  5
13B
330
1F
100
AcDbEntity
  8
0
  6
CONTINUOUS
 62
     3
100
AcDbLine
 10
-17.16171310681914
 20
-11.00000003535135
 30
0.0
 11
-18.29568770303471
 21
-11.00000003535135
 31
0.0
  0
LINE
  5
13C
330
1F
100
AcDbEntity
  8
0
  6
CONTINUOUS
 62
     3
100
AcDbLine
 10
-17.16171310681914
 20
-14.00000003535135
 30
0.0
 11
-25.66171310681914
 21
-14.00000003535135
 31
0.0
  0
LINE
  5
13D
330
1F
100
AcDbEntity
  8
0
  6
CONTINUOUS
 62
     3
100
AcDbLine
 10
-15.46171310681914
 20
-9.500000035351345
 30
0.0
 11
-14.66171310681914
 21
-9.500000035351345
 31
0.0
  0
LINE
  5
13E
330
1F
100
AcDbEntity
  8
0
  6
CONTINUOUS
 62
     3
100
AcDbLine
 10
-15.66171310681914
 20
-9.700000035351348
 30
0.0
 11
-15.46171310681914
 21
-9.500000035351345
 31
0.0
  0
LINE
  5
13F
330
1F
100
AcDbEntity
  8
0
  6
CONTINUOUS
 62
     3
100
AcDbLine
 10
-15.46171310681914
 20
-15.50000003535135
 30
0.0
 11
-14.66171310681914
 21
-15.50000003535135
 31
0.0
  0
LINE
  5
140
330
1F
100
AcDbEntity
  8
0
  6
CONTINUOUS
 62
     3
100
AcDbLine
 10
-15.66171310681914
 20
-15.30000003535134
 30
0.0
 11
-15.46171310681914
 21
-15.50000003535135
 31
0.0
  0
LINE
  5
141
330
1F
100
AcDbEntity
  8
0
  6
CONTINUOUS
 62
     3
100
AcDbLine
 10
-17.16171310681914
 20
-9.750000035351345
 30
0.0
 11
-17.16171310681914
 21
-15.25000003535135
 31
0.0
  0
LINE
  5
142
330
1F
100
AcDbEntity
  8
0
  6
CONTINUOUS
 62
     3
100
AcDbLine
 10
-15.66171310681914
 20
-9.750000035351345
 30
0.0
 11
-17.16171310681914
 21
-9.750000035351345
 31
0.0
  0
LINE
  5
143
330
1F
100
AcDbEntity
  8
0
  6
CONTINUOUS
 62
     3
100
AcDbLine
 10
-15.66171310681914
 20
-15.25000003535135
 30
0.0
 11
-17.16171310681914
 21
-15.25000003535135
 31
0.0
  0
LINE
  5
144
330
1F
100
AcDbEntity
  8
0
  6
CONTINUOUS
 62
     3
100
AcDbLine
 10
-15.46171310681914
 20
-9.500000035351345
 30
0.0
 11
-15.46171310681914
 21
-15.50000003535135
 31
0.0
  0
LINE
  5
145
330
1F
100
AcDbEntity
  8
0
  6
CONTINUOUS
 62
     3
100
AcDbLine
 10
-19.16171310681914
 20
-11.50000003535135
 30
0.0
 11
-18.29568770303471
 21
-11.00000003535135
 31
0.0
  0
LINE
  5
146
330
1F
100
AcDbEntity
  8
0
  6
CONTINUOUS
 62
     3
100
AcDbLine
 10
35.29905640863953
 20
-18.50000007070272
 30
0.0
 11
35.29905640863953
 21
-6.500000000000039
 31
0.0
  0
LINE
  5
147
330
1F
100
AcDbEntity
  8
0
  6
CONTINUOUS
 62
     3
100
AcDbLine
 10
38.53828689318085
 20
-10.00000009658173
 30
0.0
 11
38.53828689318085
 21
-14.99999997412104
 31
0.0
  0
LINE
  5
148
330
1F
100
AcDbEntity
  8
0
  6
CONTINUOUS
 62
     3
100
AcDbLine
 10
38.53828689318085
 20
-14.99999997412104
 30
0.0
 11
38.43828689318085
 21
-14.99999997412104
 31
0.0
  0
LINE
  5
149
330
1F
100
AcDbEntity
  8
0
  6
CONTINUOUS
 62
     3
100
AcDbLine
 10
36.33828689318085
 20
-17.90000003535138
 30
0.0
 11
36.33828689318086
 21
-7.100000035351382
 31
0.0
  0
LINE
  5
14A
330
1F
100
AcDbEntity
  8
0
  6
CONTINUOUS
 62
     3
100
AcDbLine
 10
37.83828689318085
 20
-17.90000003535138
 30
0.0
 11
37.83828689318085
 21
-7.100000035351382
 31
0.0
  0
LINE
  5
14B
330
1F
100
AcDbEntity
  8
0
  6
CONTINUOUS
 62
     3
100
AcDbLine
 10
38.43828689318085
 20
-17.80000009658172
 30
0.0
 11
38.43828689318086
 21
-7.200000035351376
 31
0.0
  0
LINE
  5
14C
330
1F
100
AcDbEntity
  8
0
  6
CONTINUOUS
 62
     3
100
AcDbLine
 10
37.78828689318085
 20
-17.90000003535138
 30
0.0
 11
37.78828689318085
 21
-7.100000035351382
 31
0.0
  0
LINE
  5
14D
330
1F
100
AcDbEntity
  8
0
  6
CONTINUOUS
 62
     3
100
AcDbLine
 10
38.53828689318085
 20
-10.00000009658173
 30
0.0
 11
38.43828689318086
 21
-10.00000009658173
 31
0.0
  0
LINE
  5
14E
330
1F
100
AcDbEntity
  8
0
  6
CONTINUOUS
 62
     3
100
AcDbLine
 10
38.33828689318085
 20
-17.90000009658173
 30
0.0
 11
38.33828689318085
 21
-15.85597155046135
 31
0.0
  0
LINE
  5
14F
330
1F
100
AcDbEntity
  8
0
  6
CONTINUOUS
 62
     3
100
AcDbLine
 10
38.33828689318085
 20
-13.1282345866515
 30
0.0
 11
38.33828689318085
 21
-8.490039823335561
 31
0.0
  0
LINE
  5
150
330
1F
100
AcDbEntity
  8
0
  6
CONTINUOUS
 62
     3
100
AcDbLine
 10
38.43828689318085
 20
-13.1282345866515
 30
0.0
 11
37.83828689318085
 21
-13.1282345866515
 31
0.0
  0
LINE
  5
151
330
1F
100
AcDbEntity
  8
0
  6
CONTINUOUS
 62
     3
100
AcDbLine
 10
38.43828689318085
 20
-15.85597155046135
 30
0.0
 11
37.83828689318085
 21
-15.85597155046135
 31
0.0
  0
LINE
  5
152
330
1F
100
AcDbEntity
  8
0
  6
CONTINUOUS
 62
     3
100
AcDbLine
 10
38.43828689318085
 20
-8.490039823335561
 30
0.0
 11
37.83828689318085
 21
-8.490039823335561
 31
0.0
  0
LINE
  5
153
330
1F
100
AcDbEntity
  8
0
  6
CONTINUOUS
 62
     3
100
AcDbLine
 10
35.29905634740921
 20
-6.500000000000039
 30
0.0
 11
13.33828694865213
 21
-6.500000000000025
 31
0.0
  0
ARC
  5
154
330
1F
100
AcDbEntity
  8
0
  6
CONTINUOUS
 62
     3
100
AcDbCircle
 10
13.33828689318085
 20
-7.700000035351376
 30
0.0
 40
1.2
100
AcDbArc
 50
90.0
 51
180.0
  0
ARC
  5
155
330
1F
100
AcDbEntity
  8
0
  6
CONTINUOUS
 62
     3
100
AcDbCircle
 10
13.33828689318085
 20
-17.30000003535137
 30
0.0
 40
1.2
100
AcDbArc
 50
180.0
 51
269.9999999999999
  0
LINE
  5
156
330
1F
100
AcDbEntity
  8
0
  6
CONTINUOUS
 62
     3
100
AcDbLine
 10
35.29905634740919
 20
-18.50000007070272
 30
0.0
 11
13.33828694865213
 21
-18.50000007070274
 31
0.0
  0
LINE
  5
157
330
1F
100
AcDbEntity
  8
0
  6
CONTINUOUS
 62
     3
100
AcDbLine
 10
35.29905640863953
 20
25.99999996464866
 30
0.0
 11
35.29905640863953
 21
38.00000003535133
 31
0.0
  0
LINE
  5
158
330
1F
100
AcDbEntity
  8
0
  6
CONTINUOUS
 62
     3
100
AcDbLine
 10
38.53828689318085
 20
34.49999993876965
 30
0.0
 11
38.53828689318085
 21
29.50000006123034
 31
0.0
  0
LINE
  5
159
330
1F
100
AcDbEntity
  8
0
  6
CONTINUOUS
 62
     3
100
AcDbLine
 10
38.53828689318085
 20
29.50000006123034
 30
0.0
 11
38.43828689318085
 21
29.50000006123034
 31
0.0
  0
LINE
  5
15A
330
1F
100
AcDbEntity
  8
0
  6
CONTINUOUS
 62
     3
100
AcDbLine
 10
36.33828689318085
 20
26.6
 30
0.0
 11
36.33828689318086
 21
37.39999999999999
 31
0.0
  0
LINE
  5
15B
330
1F
100
AcDbEntity
  8
0
  6
CONTINUOUS
 62
     3
100
AcDbLine
 10
37.83828689318085
 20
26.6
 30
0.0
 11
37.83828689318085
 21
37.39999999999999
 31
0.0
  0
LINE
  5
15C
330
1F
100
AcDbEntity
  8
0
  6
CONTINUOUS
 62
     3
100
AcDbLine
 10
38.43828689318085
 20
26.69999993876965
 30
0.0
 11
38.43828689318086
 21
37.3
 31
0.0
  0
LINE
  5
15D
330
1F
100
AcDbEntity
  8
0
  6
CONTINUOUS
 62
     3
100
AcDbLine
 10
37.78828689318085
 20
26.6
 30
0.0
 11
37.78828689318085
 21
37.39999999999999
 31
0.0
  0
LINE
  5
15E
330
1F
100
AcDbEntity
  8
0
  6
CONTINUOUS
 62
     3
100
AcDbLine
 10
38.53828689318085
 20
34.49999993876965
 30
0.0
 11
38.43828689318086
 21
34.49999993876965
 31
0.0
  0
LINE
  5
15F
330
1F
100
AcDbEntity
  8
0
  6
CONTINUOUS
 62
     3
100
AcDbLine
 10
38.33828689318085
 20
26.59999993876965
 30
0.0
 11
38.33828689318085
 21
28.64402848489003
 31
0.0
  0
LINE
  5
160
330
1F
100
AcDbEntity
  8
0
  6
CONTINUOUS
 62
     3
100
AcDbLine
 10
38.33828689318085
 20
31.37176544869988
 30
0.0
 11
38.33828689318085
 21
36.00996021201581
 31
0.0
  0
LINE
  5
161
330
1F
100
AcDbEntity
  8
0
  6
CONTINUOUS
 62
     3
100
AcDbLine
 10
38.43828689318085
 20
31.37176544869988
 30
0.0
 11
37.83828689318085
 21
31.37176544869988
 31
0.0
  0
LINE
  5
162
330
1F
100
AcDbEntity
  8
0
  6
CONTINUOUS
 62
     3
100
AcDbLine
 10
38.43828689318085
 20
28.64402848489003
 30
0.0
 11
37.83828689318085
 21
28.64402848489003
 31
0.0
  0
LINE
  5
163
330
1F
100
AcDbEntity
  8
0
  6
CONTINUOUS
 62
     3
100
AcDbLine
 10
38.43828689318085
 20
36.00996021201581
 30
0.0
 11
37.83828689318085
 21
36.00996021201581
 31
0.0
  0
LINE
  5
164
330
1F
100
AcDbEntity
  8
0
  6
CONTINUOUS
 62
     3
100
AcDbLine
 10
35.29905634740921
 20
38.00000003535133
 30
0.0
 11
24.31867164803067
 21
38.00000003535135
 31
0.0
  0
LINE
  5
165
330
1F
100
AcDbEntity
  8
0
  6
CONTINUOUS
 62
     3
100
AcDbLine
 10
35.29905634740919
 20
25.99999996464866
 30
0.0
 11
21.10328131991247
 21
25.99999996464866
 31
0.0
  0
LINE
  5
166
330
1F
100
AcDbEntity
  8
LAYER0015
  6
CONTINUOUS
 62
     3
100
AcDbLine
 10
12.13828689318086
 20
-18.15000003535136
 30
0.0
 11
12.13828689318086
 21
-17.45000003535136
 31
0.0
  0
LINE
  5
167
330
1F
100
AcDbEntity
  8
LAYER0015
  6
CONTINUOUS
 62
     3
100
AcDbLine
 10
12.13828689318086
 20
-16.05000003535136
 30
0.0
 11
12.13828689318086
 21
-6.850000035351368
 31
0.0
  0
ELLIPSE
  5
168
330
1F
100
AcDbEntity
  8
LAYER0001
  6
CONTINUOUS
 62
     3
100
AcDbEllipse
 10
10.53828689318086
 20
-15.75000003535138
 30
0.0
 11
1.35
 21
0.0
 31
0.0
210
0.0
220
0.0
230
1.0
 40
0.7741786567551693
 41
0.0
 42
6.283185307179586
  0
LINE
  5
169
330
1F
100
AcDbEntity
  8
LAYER0001
  6
CONTINUOUS
 62
     3
100
AcDbLine
 10
9.783408131458462
 20
-16.33441106111463
 30
0.0
 11
10.53828689318086
 21
-15.75000003535138
 31
0.0
  0
LINE
  5
16A
330
1F
100
AcDbEntity
  8
LAYER0001
  6
CONTINUOUS
 62
     3
100
AcDbLine
 10
11.29316565490326
 20
-16.33441106111463
 30
0.0
 11
10.53828689318086
 21
-15.75000003535138
 31
0.0
  0
LINE
  5
16B
330
1F
100
AcDbEntity
  8
LAYER0001
  6
CONTINUOUS
 62
     3
100
AcDbLine
 10
9.783408131458462
 20
-15.16558900958813
 30
0.0
 11
10.53828689318086
 21
-15.75000003535138
 31
0.0
  0
LINE
  5
16C
330
1F
100
AcDbEntity
  8
LAYER0001
  6
CONTINUOUS
 62
     3
100
AcDbLine
 10
11.29316565490326
 20
-15.16558900958813
 30
0.0
 11
10.53828689318086
 21
-15.75000003535138
 31
0.0
  0
LINE
  5
16D
330
1F
100
AcDbEntity
  8
LAYER0001
  6
CONTINUOUS
 62
     3
100
AcDbLine
 10
82.312475867193
 20
-12.90000003535137
 30
0.0
 11
59.26420852222454
 21
-12.90000003535137
 31
0.0
  0
LINE
  5
16E
330
1F
100
AcDbEntity
  8
LAYER0001
  6
CONTINUOUS
 62
     3
100
AcDbLine
 10
82.312475867193
 20
-12.10000003535137
 30
0.0
 11
59.11505597985165
 21
-12.10000003535138
 31
0.0
  0
LINE
  5
16F
330
1F
100
AcDbEntity
  8
LAYER0001
  6
CONTINUOUS
 62
     3
100
AcDbLine
 10
82.312475867193
 20
-12.10000003535137
 30
0.0
 11
82.312475867193
 21
-12.90000003535137
 31
0.0
  0
LINE
  5
170
330
1F
100
AcDbEntity
  8
LAYER0001
  6
CONTINUOUS
 62
     3
100
AcDbLine
 10
38.43828689318085
 20
-12.10000003535136
 30
0.0
 11
58.44932171411739
 21
-12.10000003535133
 31
0.0
  0
LINE
  5
171
330
1F
100
AcDbEntity
  8
LAYER0001
  6
CONTINUOUS
 62
     3
100
AcDbLine
 10
38.43828689318085
 20
-12.90000003535136
 30
0.0
 11
58.59847425649028
 21
-12.90000003535137
 31
0.0
  0
LINE
  5
172
330
1F
100
AcDbEntity
  8
LAYER0001
  6
CONTINUOUS
 62
     3
100
AcDbLine
 10
38.43828689318085
 20
-17.80000003535139
 30
0.0
 11
38.33828689318085
 21
-17.90000003535138
 31
0.0
  0
LINE
  5
173
330
1F
100
AcDbEntity
  8
LAYER0001
  6
CONTINUOUS
 62
     3
100
AcDbLine
 10
38.43828689318086
 20
-7.200000035351376
 30
0.0
 11
38.33828689318085
 21
-7.100000035351382
 31
0.0
  0
LINE
  5
174
330
1F
100
AcDbEntity
  8
LAYER0001
  6
CONTINUOUS
 62
     3
100
AcDbLine
 10
38.43828689318085
 20
26.69999999999999
 30
0.0
 11
38.33828689318085
 21
26.6
 31
0.0
  0
LINE
  5
175
330
1F
100
AcDbEntity
  8
LAYER0001
  6
CONTINUOUS
 62
     3
100
AcDbLine
 10
38.43828689318086
 20
37.3
 30
0.0
 11
38.33828689318085
 21
37.39999999999999
 31
0.0
  0
LINE
  5
176
330
1F
100
AcDbEntity
  8
LAYER0112
  6
CONTINUOUS
 62
     3
100
AcDbLine
 10
36.33828689318085
 20
-17.90000003535138
 30
0.0
 11
35.29905640863953
 21
-18.50000003535137
 31
0.0
  0
LINE
  5
177
330
1F
100
AcDbEntity
  8
LAYER0112
  6
CONTINUOUS
 62
     3
100
AcDbLine
 10
36.33828689318086
 20
-7.100000035351382
 30
0.0
 11
35.29905640863953
 21
-6.500000035351388
 31
0.0
  0
LINE
  5
178
330
1F
100
AcDbEntity
  8
LAYER0112
  6
CONTINUOUS
 62
     3
100
AcDbLine
 10
37.78828689318085
 20
-17.90000003535138
 30
0.0
 11
37.83828689318085
 21
-17.85000003535138
 31
0.0
  0
LINE
  5
179
330
1F
100
AcDbEntity
  8
LAYER0112
  6
CONTINUOUS
 62
     3
100
AcDbLine
 10
37.83828689318085
 20
-17.90000003535138
 30
0.0
 11
38.33828689318085
 21
-17.90000003535138
 31
0.0
  0
LINE
  5
17A
330
1F
100
AcDbEntity
  8
LAYER0112
  6
CONTINUOUS
 62
     3
100
AcDbLine
 10
36.33828689318085
 20
-17.90000003535138
 30
0.0
 11
37.78828689318085
 21
-17.90000003535138
 31
0.0
  0
LINE
  5
17B
330
1F
100
AcDbEntity
  8
LAYER0112
  6
CONTINUOUS
 62
     3
100
AcDbLine
 10
37.78828689318085
 20
-7.100000035351382
 30
0.0
 11
37.83828689318085
 21
-7.150000035351379
 31
0.0
  0
LINE
  5
17C
330
1F
100
AcDbEntity
  8
LAYER0112
  6
CONTINUOUS
 62
     3
100
AcDbLine
 10
37.83828689318085
 20
-7.100000035351382
 30
0.0
 11
38.33828689318085
 21
-7.100000035351382
 31
0.0
  0
LINE
  5
17D
330
1F
100
AcDbEntity
  8
LAYER0112
  6
CONTINUOUS
 62
     3
100
AcDbLine
 10
36.33828689318086
 20
-7.100000035351382
 30
0.0
 11
37.78828689318085
 21
-7.100000035351382
 31
0.0
  0
LINE
  5
17E
330
1F
100
AcDbEntity
  8
LAYER0112
  6
CONTINUOUS
 62
     3
100
AcDbLine
 10
36.33828689318085
 20
26.6
 30
0.0
 11
35.29905640863953
 21
26.0
 31
0.0
  0
LINE
  5
17F
330
1F
100
AcDbEntity
  8
LAYER0112
  6
CONTINUOUS
 62
     3
100
AcDbLine
 10
36.33828689318086
 20
37.39999999999999
 30
0.0
 11
35.29905640863953
 21
37.99999999999999
 31
0.0
  0
LINE
  5
180
330
1F
100
AcDbEntity
  8
LAYER0112
  6
CONTINUOUS
 62
     3
100
AcDbLine
 10
37.78828689318085
 20
26.6
 30
0.0
 11
37.83828689318085
 21
26.65
 31
0.0
  0
LINE
  5
181
330
1F
100
AcDbEntity
  8
LAYER0112
  6
CONTINUOUS
 62
     3
100
AcDbLine
 10
37.83828689318085
 20
26.6
 30
0.0
 11
38.33828689318085
 21
26.6
 31
0.0
  0
LINE
  5
182
330
1F
100
AcDbEntity
  8
LAYER0112
  6
CONTINUOUS
 62
     3
100
AcDbLine
 10
36.33828689318085
 20
26.6
 30
0.0
 11
37.78828689318085
 21
26.6
 31
0.0
  0
LINE
  5
183
330
1F
100
AcDbEntity
  8
LAYER0112
  6
CONTINUOUS
 62
     3
100
AcDbLine
 10
37.78828689318085
 20
37.39999999999999
 30
0.0
 11
37.83828689318085
 21
37.34999999999999
 31
0.0
  0
LINE
  5
184
330
1F
100
AcDbEntity
  8
LAYER0112
  6
CONTINUOUS
 62
     3
100
AcDbLine
 10
37.83828689318085
 20
37.39999999999999
 30
0.0
 11
38.33828689318085
 21
37.39999999999999
 31
0.0
  0
LINE
  5
185
330
1F
100
AcDbEntity
  8
LAYER0112
  6
CONTINUOUS
 62
     3
100
AcDbLine
 10
36.33828689318086
 20
37.39999999999999
 30
0.0
 11
37.78828689318085
 21
37.39999999999999
 31
0.0
  0
LINE
  5
186
330
1F
100
AcDbEntity
  8
0
  6
CONTINUOUS
 62
     7
100
AcDbLine
 10
24.85457003289291
 20
40.00000003535135
 30
0.0
 11
20.56738293505022
 21
23.99999996464866
 31
0.0
  0
LINE
  5
187
330
1F
100
AcDbEntity
  8
0
  6
CONTINUOUS
 62
     7
100
AcDbLine
 10
23.85457003289291
 20
40.00000003535135
 30
0.0
 11
19.56738293505022
 21
23.99999996464866
 31
0.0
  0
INSERT
  5
188
330
1F
100
AcDbEntity
  8
0
  6
CONTINUOUS
100
AcDbBlockReference
  2
DC_GROUP_1
 10
0.0
 20
0.0
 30
0.0
  0
INSERT
  5
189
330
1F
100
AcDbEntity
  8
0
  6
CONTINUOUS
100
AcDbBlockReference
  2
DA_IMAGEDIMGROUP_1
 10
0.0
 20
0.0
 30
0.0
  0
INSERT
  5
18A
330
1F
100
AcDbEntity
  8
0
  6
CONTINUOUS
100
AcDbBlockReference
  2
DA_IMAGEDIMGROUP_2
 10
0.0
 20
0.0
 30
0.0
  0
INSERT
  5
18B
330
1F
100
AcDbEntity
  8
0
  6
CONTINUOUS
100
AcDbBlockReference
  2
DA_IMAGEDIMGROUP_3
 10
0.0
 20
0.0
 30
0.0
  0
INSERT
  5
18C
330
1F
100
AcDbEntity
  8
0
  6
CONTINUOUS
100
AcDbBlockReference
  2
DA_IMAGEDIMGROUP_4
 10
0.0
 20
0.0
 30
0.0
  0
INSERT
  5
18D
330
1F
100
AcDbEntity
  8
0
  6
CONTINUOUS
100
AcDbBlockReference
  2
DA_IMAGEDIMGROUP_5
 10
0.0
 20
0.0
 30
0.0
  0
INSERT
  5
18E
330
1F
100
AcDbEntity
  8
0
  6
CONTINUOUS
100
AcDbBlockReference
  2
DA_IMAGEDIMGROUP_6
 10
0.0
 20
0.0
 30
0.0
  0
INSERT
  5
18F
330
1F
100
AcDbEntity
  8
0
  6
CONTINUOUS
100
AcDbBlockReference
  2
DA_IMAGEDIMGROUP_7
 10
0.0
 20
0.0
 30
0.0
  0
INSERT
  5
190
330
1F
100
AcDbEntity
  8
0
  6
CONTINUOUS
100
AcDbBlockReference
  2
DA_IMAGEDIMGROUP_8
 10
0.0
 20
0.0
 30
0.0
  0
INSERT
  5
191
330
1F
100
AcDbEntity
  8
0
  6
CONTINUOUS
100
AcDbBlockReference
  2
DA_IMAGEDIMGROUP_9
 10
0.0
 20
0.0
 30
0.0
  0
INSERT
  5
192
330
1F
100
AcDbEntity
  8
0
  6
CONTINUOUS
100
AcDbBlockReference
  2
DA_IMAGEDIMGROUP_10
 10
0.0
 20
0.0
 30
0.0
  0
INSERT
  5
193
330
1F
100
AcDbEntity
  8
0
  6
CONTINUOUS
100
AcDbBlockReference
  2
DC_GROUP_2
 10
0.0
 20
0.0
 30
0.0
  0
INSERT
  5
194
330
1F
100
AcDbEntity
  8
0
  6
CONTINUOUS
100
AcDbBlockReference
  2
DC_GROUP_3
 10
0.0
 20
0.0
 30
0.0
  0
INSERT
  5
195
330
1F
100
AcDbEntity
  8
0
  6
CONTINUOUS
100
AcDbBlockReference
  2
DA_IMAGEDIMGROUP_11
 10
0.0
 20
0.0
 30
0.0
  0
INSERT
  5
196
330
1F
100
AcDbEntity
  8
0
  6
CONTINUOUS
100
AcDbBlockReference
  2
DA_IMAGEDIMGROUP_12
 10
0.0
 20
0.0
 30
0.0
  0
INSERT
  5
197
330
1F
100
AcDbEntity
  8
0
  6
CONTINUOUS
100
AcDbBlockReference
  2
DA_IMAGEDIMGROUP_13
 10
0.0
 20
0.0
 30
0.0
  0
INSERT
  5
198
330
1F
100
AcDbEntity
  8
0
  6
CONTINUOUS
100
AcDbBlockReference
  2
DC_GROUP_4
 10
0.0
 20
0.0
 30
0.0
  0
LINE
  5
199
330
1F
100
AcDbEntity
  8
LAYER0001
  6
CONTINUOUS
 62
     3
100
AcDbLine
 10
82.312475867193
 20
35.00000000000001
 30
0.0
 11
59.26420852222453
 21
35.00000000000001
 31
0.0
  0
LINE
  5
19A
330
1F
100
AcDbEntity
  8
LAYER0001
  6
CONTINUOUS
 62
     3
100
AcDbLine
 10
82.312475867193
 20
35.80000000000001
 30
0.0
 11
59.11505597985165
 21
35.80000000000003
 31
0.0
  0
LINE
  5
19B
330
1F
100
AcDbEntity
  8
LAYER0001
  6
CONTINUOUS
 62
     3
100
AcDbLine
 10
82.31247586719303
 20
35.80000000000001
 30
0.0
 11
82.312475867193
 21
35.00000000000001
 31
0.0
  0
LINE
  5
19C
330
1F
100
AcDbEntity
  8
LAYER0001
  6
CONTINUOUS
 62
     3
100
AcDbLine
 10
82.312475867193
 20
28.20000000000001
 30
0.0
 11
59.26420852222454
 21
28.20000000000001
 31
0.0
  0
LINE
  5
19D
330
1F
100
AcDbEntity
  8
LAYER0001
  6
CONTINUOUS
 62
     3
100
AcDbLine
 10
82.312475867193
 20
29.00000000000001
 30
0.0
 11
59.11505597985165
 21
29.00000000000001
 31
0.0
  0
LINE
  5
19E
330
1F
100
AcDbEntity
  8
LAYER0001
  6
CONTINUOUS
 62
     3
100
AcDbLine
 10
82.312475867193
 20
29.00000000000001
 30
0.0
 11
82.312475867193
 21
28.20000000000001
 31
0.0
  0
LINE
  5
19F
330
1F
100
AcDbEntity
  8
LAYER0001
  6
CONTINUOUS
 62
     3
100
AcDbLine
 10
38.43828689318085
 20
29.00000000000001
 30
0.0
 11
58.44932171411738
 21
29.00000000000001
 31
0.0
  0
LINE
  5
1A0
330
1F
100
AcDbEntity
  8
LAYER0001
  6
CONTINUOUS
 62
     3
100
AcDbLine
 10
38.43828689318085
 20
28.20000000000001
 30
0.0
 11
58.59847425649027
 21
28.20000000000001
 31
0.0
  0
LINE
  5
1A1
330
1F
100
AcDbEntity
  8
LAYER0001
  6
CONTINUOUS
 62
     3
100
AcDbLine
 10
38.43828689318085
 20
35.80000000000001
 30
0.0
 11
58.44932171411738
 21
35.80000000000003
 31
0.0
  0
LINE
  5
1A2
330
1F
100
AcDbEntity
  8
LAYER0001
  6
CONTINUOUS
 62
     3
100
AcDbLine
 10
38.43828689318085
 20
35.00000000000001
 30
0.0
 11
58.59847425649026
 21
35.00000000000001
 31
0.0
  0
TEXT
  5
1A3
330
1F
100
AcDbEntity
  8
0
 62
     7
100
AcDbText
 10
-88.66171310681915
 20
-53.00000003535133
 30
0.0
 40
4.0
  1
※THE CABLE LOCATION IS FOR REFERENCE ONLY.
 41
0.7962085308056872
  7
FDASTYLE0
 72
     5
 11
45.73828689318086
 21
-53.00000003535133
 31
0.0
100
AcDbText
  0
VIEWPORT
  5
49
330
1B
100
AcDbEntity
 67
     1
  8
0
100
AcDbViewport
 10
0.0
 20
-5.0
 30
0.0
 40
551.4702786409149
 41
288.000000212108
 68
     1
 69
     1
1001
ACAD
1000
MVIEW
1002
{
1070
    16
1010
0.0
1020
0.0
1030
0.0
1010
0.0
1020
0.0
1030
1.0
1040
0.0
1040
288.000000212108
1040
0.0
1040
-5.0
1040
50.0
1040
0.0
1040
0.0
1070
     0
1070
   100
1070
     0
1070
     1
1070
     0
1070
     0
1070
     0
1070
     0
1040
0.0
1040
0.0
1040
0.0
1040
0.5
1040
0.5
1040
0.0
1040
0.0
1070
     0
1002
{
1002
}
1002
}
  0
ENDSEC
  0
SECTION
  2
OBJECTS
  0
DICTIONARY
  5
C
330
0
100
AcDbDictionary
  3
ACAD_GROUP
350
D
  3
ACAD_LAYOUT
350
1A
  3
ACAD_MLINESTYLE
350
17
  3
ACAD_PLOTSETTINGS
350
19
  3
ACDBHEADERROUNDTRIPXREC
350
1A4
  0
DICTIONARY
  5
D
102
{ACAD_REACTORS
330
C
102
}
330
C
100
AcDbDictionary
  0
DICTIONARY
  5
1A
102
{ACAD_REACTORS
330
C
102
}
330
C
100
AcDbDictionary
  0
DICTIONARY
  5
17
102
{ACAD_REACTORS
330
C
102
}
330
C
100
AcDbDictionary
  3
STANDARD
350
18
  0
DICTIONARY
  5
19
102
{ACAD_REACTORS
330
C
102
}
330
C
100
AcDbDictionary
  0
DICTIONARY
  5
1A4
102
{ACAD_REACTORS
330
C
102
}
330
C
100
AcDbDictionary
  3
CEPSNTYPE
350
1AD
  3
DIMSTYLEDATA
350
1C3
  3
FINGERPRINTGUID
350
1AE
  3
HYPERLINKBASE
350
1A7
  3
INSUNITS
350
1AC
  3
LAYOUTDICT
350
1A9
  3
LWETCUNION
350
1AB
  3
PLOTSETDICT
350
1AA
  3
PSVPSCALE
350
1B0
  3
PUCSBASE
350
1B3
  3
PUCSORGBACK
350
1B9
  3
PUCSORGBOTTOM
350
1B5
  3
PUCSORGFRONT
350
1B8
  3
PUCSORGLEFT
350
1B6
  3
PUCSORGRIGHT
350
1B7
  3
PUCSORGTOP
350
1B4
  3
PUCSORTHOREF
350
1B1
  3
PUCSORTHOVIEW
350
1B2
  3
STYLESHEET
350
1A8
  3
TSTACKALIGN
350
1A5
  3
TSTACKSIZE
350
1A6
  3
UCSBASE
350
1BC
  3
UCSORGBACK
350
1C2
  3
UCSORGBOTTOM
350
1BE
  3
UCSORGFRONT
350
1C1
  3
UCSORGLEFT
350
1BF
  3
UCSORGRIGHT
350
1C0
  3
UCSORGTOP
350
1BD
  3
UCSORTHOREF
350
1BA
  3
UCSORTHOVIEW
350
1BB
  3
VERSIONGUID
350
1AF
  0
MLINESTYLE
  5
18
102
{ACAD_REACTORS
330
17
102
}
330
17
100
AcDbMlineStyle
  2
Standard
 70
     0
  3

 62
   256
 51
90.0
 52
90.0
 71
     2
 49
0.5
 62
   256
  6
BYLAYER
 49
-0.5
 62
   256
  6
BYLAYER
  0
XRECORD
  5
1AD
102
{ACAD_REACTORS
330
1A4
102
}
330
1A4
100
AcDbXrecord
 90
        0
  0
XRECORD
  5
1C3
102
{ACAD_REACTORS
330
1A4
102
}
330
1A4
100
AcDbXrecord
1000
DSTYLE
1002
{
1070
   171
 70
     2
1070
   143
 40
25.4
1070
   274
 70
     2
1070
   141
 40
0.09
1070
   271
 70
     4
1070
    43
 40
0.38
1070
    44
 40
0.18
1070
   278
 70
    46
1070
    42
 40
0.0625
1070
   147
 40
0.09
1070
    77
 70
     3
1070
   272
 70
     4
1070
    73
 70
     1
1070
   172
 70
     0
1070
    74
 70
     1
1070
   283
 70
     1
1070
   340
340
11
1070
   140
 40
0.18
1070
   284
 70
     0
1070
    78
 70
     0
1002
}
  0
XRECORD
  5
1AE
102
{ACAD_REACTORS
330
1A4
102
}
330
1A4
100
AcDbXrecord
  1
{CA1E78FF-4ECA-47D5-8F86-309E7A52698A}
  0
XRECORD
  5
1A7
102
{ACAD_REACTORS
330
1A4
102
}
330
1A4
100
AcDbXrecord
  1

  0
XRECORD
  5
1AC
102
{ACAD_REACTORS
330
1A4
102
}
330
1A4
100
AcDbXrecord
 90
        4
  0
XRECORD
  5
1A9
102
{ACAD_REACTORS
330
1A4
102
}
330
1A4
100
AcDbXrecord
340
1A
  0
XRECORD
  5
1AB
102
{ACAD_REACTORS
330
1A4
102
}
330
1A4
100
AcDbXrecord
 90
    10781
  0
XRECORD
  5
1AA
102
{ACAD_REACTORS
330
1A4
102
}
330
1A4
100
AcDbXrecord
340
19
  0
XRECORD
  5
1B0
102
{ACAD_REACTORS
330
1A4
102
}
330
1A4
100
AcDbXrecord
 40
0.0
  0
XRECORD
  5
1B3
102
{ACAD_REACTORS
330
1A4
102
}
330
1A4
100
AcDbXrecord
340
0
  0
XRECORD
  5
1B9
102
{ACAD_REACTORS
330
1A4
102
}
330
1A4
100
AcDbXrecord
 10
0.0
 20
0.0
 30
0.0
  0
XRECORD
  5
1B5
102
{ACAD_REACTORS
330
1A4
102
}
330
1A4
100
AcDbXrecord
 10
0.0
 20
0.0
 30
0.0
  0
XRECORD
  5
1B8
102
{ACAD_REACTORS
330
1A4
102
}
330
1A4
100
AcDbXrecord
 10
0.0
 20
0.0
 30
0.0
  0
XRECORD
  5
1B6
102
{ACAD_REACTORS
330
1A4
102
}
330
1A4
100
AcDbXrecord
 10
0.0
 20
0.0
 30
0.0
  0
XRECORD
  5
1B7
102
{ACAD_REACTORS
330
1A4
102
}
330
1A4
100
AcDbXrecord
 10
0.0
 20
0.0
 30
0.0
  0
XRECORD
  5
1B4
102
{ACAD_REACTORS
330
1A4
102
}
330
1A4
100
AcDbXrecord
 10
0.0
 20
0.0
 30
0.0
  0
XRECORD
  5
1B1
102
{ACAD_REACTORS
330
1A4
102
}
330
1A4
100
AcDbXrecord
340
0
  0
XRECORD
  5
1B2
102
{ACAD_REACTORS
330
1A4
102
}
330
1A4
100
AcDbXrecord
 70
     0
  0
XRECORD
  5
1A8
102
{ACAD_REACTORS
330
1A4
102
}
330
1A4
100
AcDbXrecord
  1

  0
XRECORD
  5
1A5
102
{ACAD_REACTORS
330
1A4
102
}
330
1A4
100
AcDbXrecord
 90
        1
  0
XRECORD
  5
1A6
102
{ACAD_REACTORS
330
1A4
102
}
330
1A4
100
AcDbXrecord
 90
       70
  0
XRECORD
  5
1BC
102
{ACAD_REACTORS
330
1A4
102
}
330
1A4
100
AcDbXrecord
340
0
  0
XRECORD
  5
1C2
102
{ACAD_REACTORS
330
1A4
102
}
330
1A4
100
AcDbXrecord
 10
0.0
 20
0.0
 30
0.0
  0
XRECORD
  5
1BE
102
{ACAD_REACTORS
330
1A4
102
}
330
1A4
100
AcDbXrecord
 10
0.0
 20
0.0
 30
0.0
  0
XRECORD
  5
1C1
102
{ACAD_REACTORS
330
1A4
102
}
330
1A4
100
AcDbXrecord
 10
0.0
 20
0.0
 30
0.0
  0
XRECORD
  5
1BF
102
{ACAD_REACTORS
330
1A4
102
}
330
1A4
100
AcDbXrecord
 10
0.0
 20
0.0
 30
0.0
  0
XRECORD
  5
1C0
102
{ACAD_REACTORS
330
1A4
102
}
330
1A4
100
AcDbXrecord
 10
0.0
 20
0.0
 30
0.0
  0
XRECORD
  5
1BD
102
{ACAD_REACTORS
330
1A4
102
}
330
1A4
100
AcDbXrecord
 10
0.0
 20
0.0
 30
0.0
  0
XRECORD
  5
1BA
102
{ACAD_REACTORS
330
1A4
102
}
330
1A4
100
AcDbXrecord
340
0
  0
XRECORD
  5
1BB
102
{ACAD_REACTORS
330
1A4
102
}
330
1A4
100
AcDbXrecord
 70
     0
  0
XRECORD
  5
1AF
102
{ACAD_REACTORS
330
1A4
102
}
330
1A4
100
AcDbXrecord
  1
{FAEB1C32-E019-11D5-929B-00C0DF256EC4}
  0
ENDSEC
  0
EOF
